Oops, an error
Loading. Please wait.

Charmer Acoustic tab

version 2
version 2

Whole song

241 views 6 this week
no commentswrite comment
1 2 3 4 5
3 more votes to show rating
add to favorites
×
Save as Personal and add changes to this tab that will be seen only by you. Learn more ›
×
You can save this tab as Personal to edit and correct it or add notes. All changes will be seen only by you. Learn more »
launch autoscroll
font size
0
reset
how to read this tab
guitar tuner
edit
Autoscroll
slow
fast
+/-
esc
set tempo
stop
Based on this video: https://www.youtube.com/watch?v=hY0NbmpVmn0


[Intro]

Ben plays around with this and changes it a little bit in each video I've seen so you can get
a little creative with this, but this is how I play it.

Just keep your fingers on Am and hammer with your pinky.

D#|---------------------0-----------------------------------------------------|
A#|---------------------------------------------------------------------------|
F#|---------------------------------------------------------------------------|  x4
C#|--------2--2-2-2h3-3---3-3-3p2---------------------------------------------|
G#|-0--0-0--------------------------------------------------------------------|
D#|---------------------------------------------------------------------------|


[Verse]

"I was getting bored of the compliments..."

D#|-0---0---0---------|
A#|-1---0---1---------|
F#|-2---0---2---------|
C#|-2---2---3---------|
G#|-0---2---3---------|
D#|-x---0---x---------|

After "Telling me something I don't care about" play the intro again (only twice this time)

D#|---------------------0-----------------------------------------------------|
A#|---------------------------------------------------------------------------|
F#|---------------------------------------------------------------------------|  x2
C#|--------2--2-2-2h3-3---3-3-3p2---------------------------------------------|
G#|-0--0-0--------------------------------------------------------------------|
D#|---------------------------------------------------------------------------|


[Verse]

"See my silhouette on your shoulder blade..."

D#|-0---0---0---------|
A#|-1---0---1---------|  x6
F#|-2---0---2---------|
C#|-2---2---3---------|
G#|-0---2---3---------|
D#|-x---0---x---------|

D#|---------------------0-----------------------------------------------------|
A#|---------------------------------------------------------------------------|
F#|---------------------------------------------------------------------------|  x2
C#|--------2--2-2-2h3-3---3-3-3p2---------------------------------------------|
G#|-0--0-0--------------------------------------------------------------------|
D#|---------------------------------------------------------------------------|


[Verse]

For this part of the song you're playing the same chords as before, you're just adding a G in the mix.
I like to even hammer the first fret of the A# string when I'm playing an Am. This is optional. 

"Hey I need you my new charmer..."

D#|-0---0---0---3------|
A#|-1---0---1---0------|
F#|-2---0---2---0------|  x12
C#|-2---2---3---0------|
G#|-0---2---3---2------|
D#|-x---0---x---3------|

[Outro}

Play this one last time and it end with an Am.

D#|---------------------0----------0-------------------------------------------|
A#|--------------------------------1-------------------------------------------|
F#|--------------------------------2-------------------------------------------|  
C#|--------2--2-2-2h3-3---3-3-3p2--2-------------------------------------------|
G#|-0--0-0-------------------------0-------------------------------------------|
D#|--------------------------------x-------------------------------------------|



************************************

| x   Dead note
| h   Hammer-on
| p   Pull-off


************************************

            
            
Suggest correction
Creating personal tab
Creating personal tab
You can edit any tab online and save it as your Personal.

You can edit, replace or remove any tab part or add personal notes – all changes will be seen only by you.

Personal tabs can be accessed anytime from any device, even offline.
Learn more »
Give kudos to tab author, rate the tab!
1 2 3 4 5
comments
print report bad tab
guest
You may want to rate the tab now too:
select rating
Wanna post a correction for this tab? Suggest correction