Oops, an error
Loading. Please wait.

Cool bass

623 views 1 this week
no commentswrite comment
1 2 3 4 5
3 more votes to show rating
add to favorites
×
Save as Personal and add changes to this tab that will be seen only by you. Learn more ›
×
You can save this tab as Personal to edit and correct it or add notes. All changes will be seen only by you. Learn more »
launch autoscroll
font size
0
reset
guitar tuner
edit
Autoscroll
slow
fast
+/-
esc
set tempo
stop
Author
-------------------------------------------------------------------------------
                                 Cool - Tigers Jaw
-------------------------------------------------------------------------------
Tabbed by: dash219

The whole song is basically one riff, the riff cut in half, a verse end, and a little 
bit of flare at the very
end of the song. If you just want to see how those are ordered, skip to the bottom. 
Those segments are labeled
the first time they each show up in the actual tab, and are also shown with the song structure.

(0:01) Main Riff
G---------------------------------------------------------|
D---------------------------------------------------------|
A-7-7-7-7-5-5-5-5-3-3-3-3---------------------------------|
E-------------------------3-3-3-3-3-3-3-3-3-3-3-3-3-3-3-3-|

(0:05) Main Riff contd.
G---------------------------------------------------------|
D---------------------------------------------------------|
A-5-5-5-5-7-7-7-7-3-3-3-3---------------------------------|
E-------------------------3-3-3-3-3-3-3-3-3-3-3-3-3-3-3-3-|

(0:11) Main Riff
G---------------------------------------------------------|
D---------------------------------------------------------|
A-7-7-7-7-5-5-5-5-3-3-3-3---------------------------------|
E-------------------------3-3-3-3-3-3-3-3-3-3-3-3-3-3-3-3-|

(0:16) Main Riff contd.
G---------------------------------------------------------|
D---------------------------------------------------------|
A-5-5-5-5-7-7-7-7-3-3-3-3---------------------------------|
E-------------------------3-3-3-3-3-3-3-3-3-3-3-3-3-3-3-3-|

(0:22)
It’s the shadowy whisper that brushes my leg
G---------------------------------------------------------|
D---------------------------------------------------------|
A-7-7-7-7-5-5-5-5-3-3-3-3---------------------------------|
E-------------------------3-3-3-3-3-3-3-3-3-3-3-3-3-3-3-3-|

(0:27)
Or sends you shooting it through my brain
G---------------------------------------------------------|
D---------------------------------------------------------|
A-5-5-5-5-7-7-7-7-3-3-3-3---------------------------------|
E-------------------------3-3-3-3-3-3-3-3-3-3-3-3-3-3-3-3-|

(0:33) Main riff half
It’s the way you back up into my veins
G---------------------------------------------------------|
D---------------------------------------------------------|
A-7-7-7-7-5-5-5-5-3-3-3-3---------------------------------|
E-------------------------3-3-3-3-3-3-3-3-3-3-3-3-3-3-3-3-|

(0:38) Verse end
It’s a cruuuuuuuuuuuuuuuuuuuuuel world
G-----------------------------------------------------------------|
D-----------------------------------------------------------------|
A-5-5-5-5-5-5-5-5-7-7-7-7-5-5-5-5-3-3-3-3-3-3-3-3-3-3-3-3-3-3-3-3-|
E-----------------------------------------------------------------|

(0:44) Verse end contd.
But it’s coooooooooooooooooooooooooooooooooooool
G---------------------------------------------------------------------|
D---------------------------------------------------------------------|
A-5-5-5-5-5-5-5-5-5-5-5-5-5-5-5-5-5-5-5-5-5-5-5-5-7-5-5-7-5-5-7-5-7-5-|
E---------------------------------------------------------------------|

(0:50)
G---------------------------------------------------------|
D---------------------------------------------------------|
A-7-7-7-7-5-5-5-5-3-3-3-3---------------------------------|
E-------------------------3-3-3-3-3-3-3-3-3-3-3-3-3-3-3-3-|

(0:55)
G---------------------------------------------------------|
D---------------------------------------------------------|
A-5-5-5-5-7-7-7-7-3-3-3-3---------------------------------|
E-------------------------3-3-3-3-3-3-3-3-3-3-3-3-3-3-3-3-|

(1:01)
It’s the way you keep wearing me on your clothes
G---------------------------------------------------------|
D---------------------------------------------------------|
A-7-7-7-7-5-5-5-5-3-3-3-3---------------------------------|
E-------------------------3-3-3-3-3-3-3-3-3-3-3-3-3-3-3-3-|

(1:06)
Or pull me back on my own bed
G---------------------------------------------------------|
D---------------------------------------------------------|
A-5-5-5-5-7-7-7-7-3-3-3-3---------------------------------|
E-------------------------3-3-3-3-3-3-3-3-3-3-3-3-3-3-3-3-|

(1:12)
Or let me see you getting changed
G---------------------------------------------------------|
D---------------------------------------------------------|
A-7-7-7-7-5-5-5-5-3-3-3-3---------------------------------|
E-------------------------3-3-3-3-3-3-3-3-3-3-3-3-3-3-3-3-|

(1:16)
It’s a cruuuuuuuuuuuuuuuuuuuuuel world
G-----------------------------------------------------------------|
D-----------------------------------------------------------------|
A-5-5-5-5-5-5-5-5-7-7-7-7-5-5-5-5-3-3-3-3-3-3-3-3-3-3-3-3-3-3-3-3-|
E-----------------------------------------------------------------|

(1:23)
                                       But it’s cooooooooooooooooooooo
G---------------------------------------------------------------------|
D---------------------------------------------------------------------|
A-5-5-5-5-5-5-5-5-5-5-5-5-5-5-5-5-5-5-5-5-5-5-5-5-7-5-5-7-5-5-7-5-7-5-|
E---------------------------------------------------------------------|

(1:29)
ooooooooooooooooooooooooool
G---------------------------------------------------------|
D---------------------------------------------------------|
A-7-7-7-7-5-5-5-5-3-3-3-3---------------------------------|
E-------------------------3-3-3-3-3-3-3-3-3-3-3-3-3-3-3-3-|

(1:35)
G---------------------------------------------------------|
D---------------------------------------------------------|
A-5-5-5-5-7-7-7-7-3-3-3-3---------------------------------|
E-------------------------3-3-3-3-3-3-3-3-3-3-3-3-3-3-3-3-|

(1:40)
Well I’m out in California now
G---------------------------------------------------------|
D---------------------------------------------------------|
A-7-7-7-7-5-5-5-5-3-3-3-3---------------------------------|
E-------------------------3-3-3-3-3-3-3-3-3-3-3-3-3-3-3-3-|

(1:46)
Ari gave me his new car
G---------------------------------------------------------|
D---------------------------------------------------------|
A-5-5-5-5-7-7-7-7-3-3-3-3---------------------------------|
E-------------------------3-3-3-3-3-3-3-3-3-3-3-3-3-3-3-3-|

(1:51)
And all the girls are so champagne
G---------------------------------------------------------|
D---------------------------------------------------------|
A-7-7-7-7-5-5-5-5-3-3-3-3---------------------------------|
E-------------------------3-3-3-3-3-3-3-3-3-3-3-3-3-3-3-3-|

(1:56)
I'm a hiiiiiiiiiiiiiiiiigh liver
G-----------------------------------------------------------------|
D-----------------------------------------------------------------|
A-5-5-5-5-5-5-5-5-7-7-7-7-5-5-5-5-3-3-3-3-3-3-3-3-3-3-3-3-3-3-3-3-|
E-----------------------------------------------------------------|

(2:02)
I’m a slooooooooooooooooooooooooooooooooooooooooooooooooooooooooooooow
G---------------------------------------------------------------------|
D---------------------------------------------------------------------|
A-5-5-5-5-5-5-5-5-5-5-5-5-5-5-5-5-5-5-5-5-5-5-5-5-7-5-5-7-5-5-7-5-7-5-|
E---------------------------------------------------------------------|

(2:08)
burner.
G---------------------------------------------------------|
D---------------------------------------------------------|
A-7-7-7-7-5-5-5-5-3-3-3-3---------------------------------|
E-------------------------3-3-3-3-3-3-3-3-3-3-3-3-3-3-3-3-|

(2:14)
G---------------------------------------------------------|
D---------------------------------------------------------|
A-5-5-5-5-7-7-7-7-3-3-3-3---------------------------------|
E-------------------------3-3-3-3-3-3-3-3-3-3-3-3-3-3-3-3-|

(2:20)
G---------------------------------------------------------|
D---------------------------------------------------------|
A-7-7-7-7-5-5-5-5-3-3-3-3---------------------------------|
E-------------------------3-3-3-3-3-3-3-3-3-3-3-3-3-3-3-3-|

(2:25) Outro
G------------------------------------------------------------|
D------------------------------------------------------------|
A-5-5-5-5-5-5-5-5-5-5-5-5-7-7-7-7-7-7-7-7-5-5-5-5-3-3-3-3----|
E---------------------------------------------------------3~-|

Song structure:
Main riff
Main riff
Main riff
Main riff half
Verse end
Main riff
Main riff
Main riff half
Verse end
Main riff
Main riff
Main riff half
Verse end
Main riff
Main riff half
Outro

Main Riff
G--------------------------------------------------------------------------------------------------------------|
D--------------------------------------------------------------------------------------------------------------|
A-7-7-7-7-5-5-5-5-3-3-3-3-------------------------------5-5-5-5-7-7-7-7-3-3-3-3--------------------------------|
E------------------------3-3-3-3-3-3-3-3-3-3-3-3-3-3-3-3-----------------------3-3-3-3-3-3-3-3-3-3-3-3-3-3-3-3-|

Main Riff half
G---------------------------------------------------------|
D---------------------------------------------------------|
A-7-7-7-7-5-5-5-5-3-3-3-3---------------------------------|
E-------------------------3-3-3-3-3-3-3-3-3-3-3-3-3-3-3-3-|

Verse end
G-----------------------------------------------------------------|
D-----------------------------------------------------------------|
A-5-5-5-5-5-5-5-5-7-7-7-7-5-5-5-5-3-3-3-3-3-3-3-3-3-3-3-3-3-3-3-3-|
E-----------------------------------------------------------------|

G---------------------------------------------------------------------|
D---------------------------------------------------------------------|
A-5-5-5-5-5-5-5-5-5-5-5-5-5-5-5-5-5-5-5-5-5-5-5-5-7-5-5-7-5-5-7-5-7-5-|
E---------------------------------------------------------------------|

Outro
G------------------------------------------------------------|
D------------------------------------------------------------|
A-5-5-5-5-5-5-5-5-5-5-5-5-7-7-7-7-7-7-7-7-5-5-5-5-3-3-3-3----|
E---------------------------------------------------------3~-|

| /  slide up
| \  slide down
| h  hammer-on
| p  pull-off
| ~  vibrato
| +  harmonic
| x  Mute note
===============================================================================

            
            
Suggest correction
Creating personal tab
Creating personal tab
You can edit any tab online and save it as your Personal.

You can edit, replace or remove any tab part or add personal notes – all changes will be seen only by you.

Personal tabs can be accessed anytime from any device, even offline.
Learn more »
Give kudos to tab author, rate the tab!
1 2 3 4 5
comments
print report bad tab
guest
You may want to rate the tab now too:
select rating
Wanna post a correction for this tab? Suggest correction