Oops, an error
Loading. Please wait.

Cool tab

version 2
version 2

Whole song

7,193 views 24 this week
4 commentsread comments
1 2 3 4 5
x 16
add to favorites
×
Save as Personal and add changes to this tab that will be seen only by you. Learn more ›
×
You can save this tab as Personal to edit and correct it or add notes. All changes will be seen only by you. Learn more »
launch autoscroll
font size
0
reset
how to read this tab
guitar tuner
edit
Autoscroll
slow
fast
+/-
esc
set tempo
stop
-------------------------------------------------------------------------------
                             Tigers Jaw - Cool
-------------------------------------------------------------------------------
E-mail: andrewgreenwood557@hotmail.com

Hey there, I've been playing guitar for a while, but this is the first tab I've ever 
uploaded. The other
versions that are up here at the moment are pretty bad, so I figured I'd have a swing at 
it. This is based off
a recording of Ben and Brianna playing a 'Charmer' release show at the Gallery of Sound 
in Wilkes-Barre.
I'm pretty sure this is accurate, but feel free to email me about any flaws and I'll try 
fix them.

Have fun!


Tuning: Half-Step Down (D#,G#,C#,F#,A#,E#)


[Intro] x2:

e|-----x-----x-----x-----3--------|
B|-----x-----x-----x-----0--------|
G|-----x-----x-----x-----0--------|
D|-----5-----4-----5-----0--------|
A|-----7-----5-----7-----2--------|
E|-----7-----5-----7-----3--------|

e|-----x-----x-----x-----3--------|
B|-----x-----x-----x-----0--------|
G|-----x-----x-----x-----0--------|
D|-----4-----5-----2-----0--------|
A|-----5-----7-----3-----2--------|
E|-----5-----7-----3-----3--------|


[Verses]

"It's the shadowy whisper that brushes my leg..."
e|-----x-----x-----x-----3--------|
B|-----x-----x-----x-----0--------|
G|-----x-----x-----x-----0--------|
D|-----5-----4-----5-----0--------|
A|-----7-----5-----7-----2--------|
E|-----7-----5-----7-----3--------|

"or sends you shooting it through my brain..."
e|-----x-----x-----x-----3--------|
B|-----x-----x-----x-----0--------|
G|-----x-----x-----x-----0--------|
D|-----4-----5-----2-----0--------|
A|-----5-----7-----3-----2--------|
E|-----5-----7-----3-----3--------|

"it's the way you back up into my veins..."
e|-----x-----x-----x-----3--------|
B|-----x-----x-----x-----0--------|
G|-----x-----x-----x-----0--------|
D|-----5-----4-----5-----0--------|
A|-----7-----5-----7-----2--------|
E|-----7-----5-----7-----3--------|

[Chorus]

       "It's a cruel world, but it's cool..."
e|-----x--------------x--------------0-------------|
B|-----x--------------x--------------1-------------|
G|-----x--------------x--------------0-------------|
D|-----4--------------5--------------2-------------|
A|-----5--------------7--------------3-------------|
E|-----5--------------7--------------3-------------|

Then:

[Intro]
[Verse] |-x2
[Chorus]

[Outro]
       "Burner..."
e|-----x-----x-----x-----3--------|
B|-----x-----x-----x-----0--------|
G|-----x-----x-----x-----0--------|
D|-----5-----4-----5-----0--------|
A|-----7-----5-----7-----2--------|
E|-----7-----5-----7-----3--------|

e|-----x-----x-----x-----3--------|
B|-----x-----x-----x-----0--------|
G|-----x-----x-----x-----0--------|
D|-----4-----5-----2-----0--------|
A|-----5-----7-----3-----2--------|
E|-----5-----7-----3-----3--------|



************************************

| x  Dead note

************************************
Suggest correction
Creating personal tab
Creating personal tab
You can edit any tab online and save it as your Personal.

You can edit, replace or remove any tab part or add personal notes – all changes will be seen only by you.

Personal tabs can be accessed anytime from any device, even offline.
Learn more »
comments
print report bad tab
4 comments total. Showing first comments.
0 reply
bryanisntalco 10 Apr 28, 2015 12:12 AM

hi may i know what kinda chords these are? thanks!

0 reply
BrainsIV 111 Apr 29, 2015 04:41 AM

That didnt work out how i had hoped, but you get the idea

0 reply
ticklemeemoo 10 Jul 15, 2015 12:22 PM

fantastic tab man.... really appreciate it

guest
You may want to rate the tab now too:
select rating
Wanna post a correction for this tab? Suggest correction