Oops, an error
Loading. Please wait.

Distress Signal Tab

version 1
version 1

Whole song

Interactive

4,023 views 3 this week
no commentswrite comment
1 2 3 4 5
2 more votes to show rating
add to favorites
launch autoscroll
font size
0
reset
how to read this tab
guitar tuner
Autoscroll
slow
fast
+/-
esc
set tempo
stop
Help us to improve Ultimate-Guitar.com Take our survey!
×
Difficulty
intermediate
Tigers Jaw - Distress Signal
Standard






e|----------------0---0--------0------|-------------------------------------------------|
B|-------------------------3----------|-------2---2---2---2---5---0---------------------|
G|--------2---2---2---2----2---2------|-------4---4---4---4---4---2-------x---x---------|     x 3
D|--------4---4---4---4----4---0------|-------0---0---0---0---0---0-------x---x---------|
A|--------4---4---4---4----4---0------|-----------------------------------x---x---------|
E|------------------------------------|-------------------------------------------------|

e|----------------0---0-------0------|--------------------------------------------------|
B|------------------------3----------|-----2---2---2---2---0---0------------------------|
G|----2---2---2---2---2---2---2------|-----2---2---2---2---1---1---xx-------------------|
D|----4---4---4---4---4---4---0------|-----2---2---2---2---2---2---xx-------------------|
A|----4---4---4---4---4---4---0------|---------------------2---2---xx-------------------|
E|-----------------------------------|--------------------------------------------------|

e|----------------------------------------|----------------0---0---0---0----------------|
B|----------------------------------------|---------------------------------------------|
G|-----2---2---2---2---2---2----2----xx---|----4---4---4---2---6---6---6----xx----------|   x 4
D|-----4---4---4---4---4---4----4----xx---|----2---2---2--------------------xx----------|
A|-----------------------------------xx---|---------------------------------xx----------|
E|----------------------------------------|---------------------------------------------|

e|----------------0---0-------0------|-----0---0---0---0---0---0------------------------|
B|------------------------3----------|--------------------------------------------------|
G|----2---2---2---2---2---2---2------|-----2---2---2---2---2---2---xx-------------------|   x3
D|----4---4---4---4---4---4---0------|-----0---0---0---0---0---0---xx-------------------|
A|----4---4---4---4---4---4---0------|-----0---0---0---0---0---0---xx-------------------|
E|-----------------------------------|--------------------------------------------------|


e|----------------0---0-------0------|--------------------------------------------------|
B|------------------------3----------|-----2---2---2---2---0---0------------------------|
G|----2---2---2---2---2---2---2------|-----2---2---2---2---1---1---xx-------------------|
D|----4---4---4---4---4---4---0------|-----2---2---2---2---2---2---xx-------------------|
A|----4---4---4---4---4---4---0------|---------------------2---2---xx-------------------|
E|-----------------------------------|--------------------------------------------------|

e|----------------------------------------|----------------0---0---0---0----------------|
B|----------------------------------------|---------------------------------------------|
G|-----2---2---2---2---2---2----2----xx---|----4---4---4---2---6---6---6----xx----------|    x 4
D|-----4---4---4---4---4---4----4----xx---|----2---2---2--------------------xx----------|
A|-----------------------------------xx---|---------------------------------xx----------|
E|----------------------------------------|---------------------------------------------|

e|----------------0---0-------0------|-----0---0---0---0---0---0------------------------|
B|------------------------3----------|--------------------------------------------------|
G|----2---2---2---2---2---2---2------|-----2---2---2---2---2---2---xx-------------------|   x3
D|----4---4---4---4---4---4---0------|-----0---0---0---0---0---0---xx-------------------|
A|----4---4---4---4---4---4---0------|-----0---0---0---0---0---0---xx-------------------|
E|-----------------------------------|--------------------------------------------------|

e|----------------0---0-------0------|--------------------------------------------------|
B|------------------------3----------|-----2---2---2---2---0---0------------------------|
G|----2---2---2---2---2---2---2------|-----2---2---2---2---1---1---xx-------------------|
D|----4---4---4---4---4---4---0------|-----2---2---2---2---2---2---xx-------------------|
A|----4---4---4---4---4---4---0------|---------------------2---2---xx-------------------|
E|-----------------------------------|--------------------------------------------------|


e|--------------0----------------------|------------0-----------------------------------|
B|-----------7-----7---------2---2-----|---------7-----7---------2---1---6--------------|
G|-------6------------6------4---4-----|------6-----------6------4---2---7--------------|
D|---0-------------------0---4---4-----|---0-----------------0---4---2---4--------------|
A|-------------------------------------|---------------------------------5--------------|
E|-------------------------------------|------------------------------------------------|

e|------------------------------------|-------------------------------------------------|
B|------------------------------------|-------------------------------------------------|
G|------------------------------------|-------------------------------------------------|
D|---7---7---7---7---7---7---7---x----|---4---4---4---4---4---4---4---x---x-------------|   x 5
A|---5---5---5---5---5---5---5---x----|---2---2---2---2---2---2---2---x---x-------------|
E|------------------------------------|-------------------------------------------------|

e|----------------0---0-------0------|-----0---0---0---0---0---0------------------------|
B|------------------------3----------|--------------------------------------------------|
G|----2---2---2---2---2---2---2------|-----2---2---2---2---2---2---xx-------------------|   x3
D|----4---4---4---4---4---4---0------|-----0---0---0---0---0---0---xx-------------------|
A|----4---4---4---4---4---4---0------|-----0---0---0---0---0---0---xx-------------------|
E|-----------------------------------|--------------------------------------------------|

e|----------------0---0-------0--------|
B|------------------------3------------|
G|----2---2---2---2---2---2---2--------|
D|----4---4---4---4---4---4---0--------|
A|----4---4---4---4---4---4---0--------|
E|-------------------------------------|
Suggest correction
Give kudos to tab author, rate the tab!
1 2 3 4 5
comments
print report bad tab
guest
You may want to rate the tab now too:
select rating
Wanna post a correction for this tab? Suggest correction