Oops, an error
Loading. Please wait.

Heat Chords

5,266 views 27 this week
no commentswrite comment
1 2 3 4 5
please rate
add to favorites
launch autoscroll
font size
0
reset
transpose
0
reset
display chords
guitar tuner
Autoscroll
slow
fast
+/-
esc
set tempo
stop
Help us to improve Ultimate-Guitar.com Take our survey!
×
Author
-----------------------------------------------------------------------------
                             HEAT - Tigers Jaw
-----------------------------------------------------------------------------
Tabbed by: Mean Mr Mustard
Email: Gotchristo@comcast.net

Tuning: Standard
Pretty simple song guitar wise, the bass has some sweet parts to it though, so I tried 
to tab out some of that. Anyways, the song just goes back and forth between Am and C, 
just in different rhythms and such. Easy.

CHORDS:
Am  -  x-0-2-2-1-0  or 5-7-7-5-5-5-|
C   -  x-3-2-0-1-0  or x-3-5-5-5-x-|


INTRO:
Am


VERSE:
Am                            C
Drop bombs on dj getz because he don't understand
Am                                      C
The heat from all his girlfriends' not enough to make a better plan
Am                    C
European sympathy for me and all my friends
Am                                  C
The men that you sent up won't ever come back down again

Am      C   x 2


INTERLUDE:
Am    Am


Am      C  x 2

VERSE:
Am                             C
Drop bombs on your ideas, they don't make any sense
Am                             C
The money in my wallet and the car I drive do not exist

Am      C  x 2


INTERLUDE
Am     Am


Am      C  x 2

ENDING:
                          Am
no one goes to college anymore


INTRO (BASS):
  Am                C
G|-------------h---|-----------------|-------------h---|-----------------|
D|--------5-7-575--|-----------------|--------5-7-575--|-----------------|
A|------7--------7-|-3-33-3337-5-3-5-|------7--------7-|-3-33-3335-5-3-~-|
E|-5-55------------|-----------------|-5-55------------|-----------------|

INTERLUDE (BASS):
  Am                Am                Am                Am
  Am  Am  Am
G|-----------------|-----------------|-----------------|----------------|
D|-----------------|-----------------|/7-7-7-7-7-7-7-7-|----------------|
A|-0-0-0-0-0-0-0-0-|-3-3-3-2-2-2-0-0-|-----------------|-0---0---0---0--|
E|-----------------|-----------------|-----------------|----------------|
 |
e|-----------------|-----------------|-----------------|----------------|
B|-----------------|-----------------|-----------------|----------------|
G|-5-5-5-5-5-5-5-5-|-5-5-5-5-5-5-5-5-|-9-9-9-9-9-9-9-9-|-9---9---9---9--|
D|-7-7-7-7-7-7-7-7-|-7-7-7-7-7-7-7-7-|-x-x-x-x-x-x-x-x-|-x---x---x---x--|
A|-7-7-7-7-7-7-7-7-|-7-7-7-7-7-7-7-7-|-7-7-7-7-7-7-7-7-|-7---7---7---7--|
E|-5-5-5-5-5-5-5-5-|-5-5-5-5-5-5-5-5-|-----------------|----------------|


VERSE: (Yeah, Im pretty sure this is playing through the main riff/verse)
  Am                    C
e|---------------------|---------------------|
B|---------------------|---------------------|
G|----------12-12-1010-|-5---5-5--12-12-1010-|
D|-7---7-7--x--x--x-x--|-5---5-5--x--x--x-x--|
A|-7---7-7--10-10-8-8--|-3---3-3--10-10-8-8--|
E|-5---5-5-------------|---------------------|
Suggest correction
What's this?
You can suggest a correction to this tab. Community and Mods will review your correction and vote to approve or reject it.
comments
We did not receive enough feedback on this tab! Please rate:
print report bad tab
1 2 3 4 5
guest
You may want to rate the tab now too:
select rating
Please do not post tabs as comments. Select "correction" instead!