Oops, an error
Loading. Please wait.

Hum Acoustic tab

9,416 views 69 this week
3 commentsread comments
1 2 3 4 5
x 8
add to favorites
×
Save as Personal and add changes to this tab that will be seen only by you. Learn more ›
×
You can save this tab as Personal to edit and correct it or add notes. All changes will be seen only by you. Learn more »
launch autoscroll
font size
0
reset
how to read this tab
guitar tuner
edit
Autoscroll
slow
fast
+/-
esc
set tempo
stop
Hum (Acoustic) - Tigers Jaw
Tabbed by: preuss.paula

This tab is based on this performance https://www.youtube.com/watch?v=dNz6FJY83Y8. It's probably not perfect
(the transition to the verse doesn't sound quite right to me) but it should be close enough. I've been wanting
to play this forever but haven't been able to find any decent tabs, so I just gave it a try. This is my first 
halfway serious tab so if you like it leave a rating and/or a comment with any suggestions! Enjoy!
Tuning: Half-Step down

[Intro]
eb|-------------2-(2)------(2)---------|
Bb|-------------2----(2)------(2)------|
Gb|-----2/1-1p0-2-------(2)------(2)---| x4
Db|-----4/2-2p0------------------------|
Ab|-2h4-4/2-2p0------------------------|
Eb|------------------------------------|

[Intro] pt. 2/Chorus:
eb|----------------------------------|
Bb|-----x-2--------------------------|
Gb|-----x-2-4/6-6-6-6-6-6-6-6-6-6----| x4
Db|-----x-2-2/4-4-4-4-4-4-4-4-4-4----|
Ab|-2h4-x-0-0---0-0-5-5-5-x-x-x-x----|
Eb|-----------------------7-7-7-7----|

eb|-----x----------x-------------|
Bb|-----x----------x-------------| 
Gb|-6-6-x-6--6-4/6-x-6-6-6-6-----| 
Db|-4-4-x-4--4-x-x-x-4-4-4-4-----|
Ab|-x-x-x-x--x-2/4-x-5-5-5-5-----|
Eb|-5-5-x-5--5-----x-------------|

[Verse] x2:
From the basement where we first talked...
eb|----------------------------------------------------------------------------------------|
Bb|---------0-0-0-0-0-0----------0-0-0-0-0-0----------0-0-0-0-0-0----------0-0-0-0-0-0-----|
Gb|-----9---9-9-9-9-9-9------9---9-9-9-9-9-9------9---9-9-9-9-9-9------9---9-9-6-6-9-9-----| 
Db|-------7-7-7-7-7-7-7--------7-7-7-7-7-7-7--------7-7-7-7-7-7-7--------7-7-7-4-4-7-7-----|
Ab|-7h9------------------7h9------------------7h9------------------7h9---------------------|
Eb|----------------------------------------------------------------------------------------|

[Bridge]
I'm always talking in circles... I always think until I can't sleep
eb|------x-----2-2-2-2-2-2------x-----2-2-2-2-2-2-------------------------|
Bb|------x-5p2-2-2-2-2-2-2------x-5p2-2-2-2-2-2-2-------------------------|
Gb|------x-----2-2-2-2-2-2------x-----2-2-2-2-2-2-------------------------|
Db|--2h4-x------------------2h4-x-----------------------------------------|
Ab|------x----------------------x-----------------------------------------|
Eb|------x----------------------x-----------------------------------------|

eb|------x-----x-2-2-2-2-2-------x-----x-2-2-2-2-2------x-----x-2-2-2-2-2-2------x-----x-2-2-2-2-2-2---|
Bb|------x-2-2-x-2-2-5-5-2-------x-2-2-x-5-5-2-2-2------x-2-2-x-2-2-2-2-2-2------x-2-2-x-2-2-2-2-2-2---|
Gb|------x-2-2-x-2-2-2-2-2-------x-2-2-x-2-2-2-3-3------x-2-2-x-2-2-2-2-2-2------x-2-2-x-2-2-2-2-2-2---|
Db|------x-2-2-x-----------------x-2-2-x----------------x-2-2-x------------------x-2-2-x---------------|
Ab|--2h4-x-0-0-x-------------2h4-x-0-0-x------------2h4-x-0-0-x--------------2h4-x-0-0-x---------------|
Eb|------x-----x-----------------x-----x----------------x-----x------------------x-----x---------------|

[Chorus] x2:
You are the leaves at my feet...
eb|----------------------------------------|
Bb|-----x-2--------------------------------|
Gb|-----x-2-4/6-6-6-6-6-6-6-6-6-6----------| x4
Db|-----x-2-2/4-4-4-4-4-4-4-4-4-4----------|
Ab|-2h4-x-0-0---0-0-5-5-5-x-x-x-x----------|
Eb|-----------------------7-7-7-7----------|

************************************

| (n)  Ghost note
| b    Bend
| p    Pull-off
| /    Slide up
| h    Hammer-on
| x    Dead note

************************************

            
            
Suggest correction
Creating personal tab
Creating personal tab
You can edit any tab online and save it as your Personal.

You can edit, replace or remove any tab part or add personal notes – all changes will be seen only by you.

Personal tabs can be accessed anytime from any device, even offline.
Learn more »
comments
print report bad tab
3 comments total.
+2 reply
andrewaddens 10 Sep 24, 2015 11:36 AM, edited at 03:51 pm

For the Intro:
Play open E string where that slide is after the F#
Instead of the second E chord with the pull off just ring open A instead.

Thanks for the Tab!

guest
You may want to rate the tab now too:
select rating
Wanna post a correction for this tab? Suggest correction