Oops, an error
Loading. Please wait.

I Saw The Wolf tab

version 1
version 1

Whole song

Interactive

964 views 21 this week
no commentswrite comment
1 2 3 4 5
1 last vote to show rating
add to favorites
×
Save as Personal and add changes to this tab that will be seen only by you. Learn more ›
×
You can save this tab as Personal to edit and correct it or add notes. All changes will be seen only by you. Learn more »
launch autoscroll
font size
0
reset
how to read this tab
guitar tuner
edit
Autoscroll
slow
fast
+/-
esc
set tempo
stop
-------------------------------------------------------------------------------
                             I Saw The Wolf - Tigers Jaw
-------------------------------------------------------------------------------
Tabbed by: Nickarsenault12
E-mail: nickarsenault129@hotmail.com

This is my first tab and this is a relatively easy song. Just let me know of any changes I should make or 
any feedback.

Tuning:Standard

Intro\Verse  

Guitar 1: Adam                                
e|---------------------------------------------------------------------------|
B|-0-0-0-0-0-0-0-0-----------------------------------------------------------|
G|-2-2-0-0-2-2-0-0----------------------0-0-0-0-0----------------------------|
D|-0-0-0-0-0-0-0-0----4-4-2-2-4-4-2-2---2-2-2-2-2----------------------------|
A|-2-2-2-2-2-2-2-2----2-2-2-2-2-2-2-2---3-3-3-3-3----------------------------|
E|-3-3-3-3-3-3-3-3----0-0-0-0-0-0-0-0---3-3-3-3-3----------------------------|

Guitar 2: Ben
e|-1-1-1-1-1-1-1-1----0-0-0-0-0-0-0-0----------------------------------------|
B|-0-0-0-0-0-0-0-0----0-0-0-0-0-0-0-0---1-1-1-1-1----------------------------|
G|-0-0-0-0-0-0-0-0----0-0-0-0-0-0-0-0---0-0-0-0-0----------------------------|
D|-0-0-0-0-0-0-0-0----2-2-2-2-2-2-2-2---2-2-2-2-2----------------------------|
A|-2-2-2-2-2-2-2-2----2-2-2-2-2-2-2-2---3-3-3-3-3----------------------------|
E|-3-3-3-3-3-3-3-3----0-0-0-0-0-0-0-0----------------------------------------|




Pre-Chorus
Guitar 1: Adam
e|-0----------------------------------3--------------------------------------|
B|-0----------------------------------0--------------------------------------|
G|-0----------------------------------0--------------------------------------| x2
D|-2----------------------------------0--------------------------------------|
A|-2----------------------------------2--------------------------------------|
E|-0----------------------------------3--------------------------------------|

Guitar 2: Ben
e|--------------------------------------------------------------------------|
B|--------------------------------------------------------------------------|
G|--------4/5-5-4-4--------------------------4/7-7-4-4----------------------| x2
D|--------x-x-x-x-x--------------------------x-x-x-x-x----------------------|
A|--------2/3-3-2-2--------------------------2/5-5-2-2----------------------|
E|-0-0-0-------------------------------3-3-3--------------------------------|

Chorus                                  "Can't promise that I'll let..."  
e|-1-1-1-1-1-1-1-1-----------------------------------------------------------|
B|-0-0-0-0-0-0-0-0----------------------1-1-1-1-1----------------------------|
G|-2-2-0-0-2-2-0-0----------------------0-0-0-0-0----------------------------| x2
D|-0-0-0-0-0-0-0-0----4-4-2-2-4-4-2-2---2-2-2-2-2----------------------------|
A|-2-2-2-2-2-2-2-2----2-2-2-2-2-2-2-2---3-3-3-3-3----------------------------|
E|-3-3-3-3-3-3-3-3----0-0-0-0-0-0-0-0----------------------------------------|


Guitar 2: Ben
e|-1-1-1-1-1-1-1-1----0-0-0-0-0-0-0-0----------------------------------------|
B|-0-0-0-0-0-0-0-0----0-0-0-0-0-0-0-0---1-1-1-1-1----------------------------|
G|-0-0-0-0-0-0-0-0----0-0-0-0-0-0-0-0---0-0-0-0-0----------------------------| x2
D|-0-0-0-0-0-0-0-0----2-2-2-2-2-2-2-2---2-2-2-2-2----------------------------|
A|-2-2-2-2-2-2-2-2----2-2-2-2-2-2-2-2---3-3-3-3-3----------------------------|
E|-3-3-3-3-3-3-3-3----0-0-0-0-0-0-0-0----------------------------------------|

Interlude:
Guitar 1: Adam
e|-0----------------------------------3--------------------------------------|
B|-0----------------------------------0--------------------------------------|
G|-0----------------------------------0--------------------------------------| x2
D|-2----------------------------------0--------------------------------------|
A|-2----------------------------------2--------------------------------------|
E|-0----------------------------------3--------------------------------------|

Guitar 2: Ben
e|---------------------------------------------------------------------------|
B|---------------------------------------------------------------------------|
G|--------4/5-5-4-4--------------------------4/7-7-4-4-----------------------| x2
D|--------x-x-x-x-x--------------------------x-x-x-x-x-----------------------|
A|--------2/3-3-2-2--------------------------2/5-5-2-2-----------------------|
E|-0-0-0-------------------------------3-3-3---------------------------------|

Guitar 1: Adam     Strum each chord 8 times 
e|-1------------0--------------0----------------0----------------------------|
B|-0------------0--------------0----------------0----------------------------|
G|-0------------0--------------0----------------0----------------------------| x2
D|-0------------2--------------2----------------2----------------------------|
A|-2------------3--------------2----------------3----------------------------|
E|-3---------------------------0---------------------------------------------|

Guitar 2: Ben
e|------------------------------x-x--------------------x-x---------------------|
B|------------------------------x-x--------------------x-x---------------------|
G|----------------------0-4---0-x-x-------4-x-x-5-4-0--x-x-0-4-x-x-2--0-0-0-0--| x2
D|-7-7-5-5-4-4-5-5-x-x--0-0---0-x-x-----5-5-x-x-5-5-5--x-x-0-0-x-x-0--0-0-0-0--|
A|-x-x-x-x-x-x-x-x-x-x--3-3---3-x-x--\7---7-x-x-7-7-7--x-x-3-3-x-x-3--3-3-3-3--|
E|-3-3-3-3-3-3-3-3-x-x----------x-x--------------------x-x---------------------|

"Am I invisible now?"
Guitar 1 & 2:      Strum each chord 8 times 
e|-1------------0--------------0----------------0----------------------------|
B|-0------------0--------------0----------------0----------------------------|
G|-0------------0--------------0----------------0----------------------------| 
D|-0------------2--------------2----------------2----------------------------|
A|-2------------3--------------2----------------3----------------------------|
E|-3---------------------------0---------------------------------------------|

Outro: On the second time end on a G chord
Guitar 1: Adam       "A native son, a warm home...."  
e|---------------------------------------------------------------------------|
B|-0-0-0-0-0-0-0-0-----------------------------------------------------------|
G|-2-2-0-0-2-2-0-0----------------------0-0-0-0-0----------------------------|x2
D|-0-0-0-0-0-0-0-0----4-4-2-2-4-4-2-2---2-2-2-2-2----------------------------|
A|-2-2-2-2-2-2-2-2----2-2-2-2-2-2-2-2---3-3-3-3-3----------------------------|
E|-3-3-3-3-3-3-3-3----0-0-0-0-0-0-0-0---3-3-3-3-3----------------------------|

Guitar 2: Ben
e|-1-1-1-1-1-1-1-1----0-0-0-0-0-0-0-0----------------------------------------|
B|-0-0-0-0-0-0-0-0----0-0-0-0-0-0-0-0---1-1-1-1-1----------------------------|
G|-0-0-0-0-0-0-0-0----0-0-0-0-0-0-0-0---0-0-0-0-0----------------------------|
D|-0-0-0-0-0-0-0-0----2-2-2-2-2-2-2-2---2-2-2-2-2----------------------------|
A|-2-2-2-2-2-2-2-2----2-2-2-2-2-2-2-2---3-3-3-3-3----------------------------|
E|-3-3-3-3-3-3-3-3----0-0-0-0-0-0-0-0----------------------------------------| 


************************************

| /   slide up
| \   slide down
| h   hammer-on
| p   pull-off
| ~   vibrato
| +   harmonic
| x   Mute note
| b   Bend
| pb  Pre-bend
| br  Bend release
| pbr Pre-bend release
| brb Bend release bend

************************************
Suggest correction
Creating personal tab
Creating personal tab
You can edit any tab online and save it as your Personal.

You can edit, replace or remove any tab part or add personal notes – all changes will be seen only by you.

Personal tabs can be accessed anytime from any device, even offline.
Learn more »
Give kudos to tab author, rate the tab!
1 2 3 4 5
comments
print report bad tab
guest
You may want to rate the tab now too:
select rating
Wanna post a correction for this tab? Suggest correction