Oops, an error
Loading. Please wait.

Jimmy Piersall Chords

4,613 views 6 this week
1 commentread comment
1 2 3 4 5
excellent!
x 3
add to favorites
launch autoscroll
font size
0
reset
transpose
0
reset
simplify chords
display chords
guitar tuner
Tab Pro tools
  • play this tab
  • loop segment
  • change instrument
  • show fretboard
  • metronome
×
Best way to learn
"Jimmy Piersall"
Autoscroll
slow
fast
+/-
esc
set tempo
stop
Contributor
-----------------------------------------------------------------------------
                             JIMMY PIERSALL - Tigers Jaw
-----------------------------------------------------------------------------
Tabbed by: Mean Mr Mustard
Email: Gotchristo@comcast.net

Tuning: Standard

Great song. This can be for either version; in the split version, the verse uses open 
chords, and the rest are power chords, and the leads are distorted. In the alternate 
version, play them all open chords, and the leads are on the piano. Cheers

INTRO:

|Em   G | (G)   (G) |


VERSE:
Em   G        Em   G
     Sheltering    by asking if she's young too.
Em   G        Em   G
     I suppose     my mind works against you.


INTERLUDE: w/ Interlude Lead

|C  - D | Em    G |


VERSE:
Em   G         Em   G
      Sweltering.   Trying something new.
Em   G                Em   G
     I picked you up.      That doesn't mean that I like you.


CHORUS:
Cmaj7                      Em  G
The weather does strange things to old bones.
Cmaj7                  Em G
"I've seen too many winters," he says.
Cmaj7          Em G            Cmaj7         Em G
Outstretched hands feeling sick, inadequate.
I'm shades of what I used to be.

Cmaj7


BRIDGE: w/ Bridge Lead

|C  - Em | G   (G) |


BRIDGE:
C            G
I've come to know myself too well.
C                         G
I've come to know that it scares me.
C                  G
Leave who you've become on the floor
      C                       G
by forgotten things you don't need anymore,you're home.


INTERLUDE: w/ Interlude Lead

|C  - D | Em    G |   x4

End on G




INTERLUDE LEAD:
  C        D     Em    G
e|-----------------------------|
B|-5-3-----------------3-5-3---|
G|-------2-4-----------------4-| x4
D|-------------0-2-------------|
A|-----------------------------|
E|-----------------------------|


BRIDGE LEAD: (on keyboard)
  C        Em    G
e|----------------------------------|
B|---5-3------------------------3---|
G|-------4-0-2-4-0----4-2-0---0-----| x4
D|-2------------------------4-----0-|
A|----------------------------------|
E|----------------------------------|
comments
We did not receive enough feedback on this tab! Please rate:
print report bad tab
1 2 3 4 5
1 comment total.
0 reply
brianytreggah wrote on December 30 2012, 09:34 pm

you're interlude lead riff should be :


e--|-0--------------------------0------|
B--|---3-----0----------0~~---3---3----|
G--|-----0h2---0--------------------0--|
D--|-------------0h2~~------2----------|
A--|-----------------------------------|
E--|-----------------------------------|

I want to post or [tab]
guest
You may want to rate the tab now too:
select rating
Please do not post tabs as comments. Select "correction" instead!