Oops, an error
Loading. Please wait.

Meals On Wheels Chords

version 1
version 1

Whole song

Interactive

7,029 views 21 this week
no commentswrite comment
1 2 3 4 5
excellent!
x 3
add to favorites
launch autoscroll
font size
0
reset
transpose
0
reset
display chords
guitar tuner
Autoscroll
slow
fast
+/-
esc
set tempo
stop
Help us to improve Ultimate-Guitar.com Take our survey!
×
Contributor
-----------------------------------------------------------------------------
                             MEALS ON WHEELS - Tigers Jaw
-----------------------------------------------------------------------------
Tabbed by: Mean Mr Mustard
Email: Gotchristo@comcast.net

Tuning: Standard

Okay this song was kinda hard because it's hard to tell exactly what each guitar is
doing here. However, it all revolves around that D to Bm chord progression that they use a
lot. At the bottom Ive put the tab of what I think they play there (its what I do and it 
sounds fine).

CHORDS: (easy)
D  - x-x-0-2-3-2-|
Bm - x-2-4-4-3-2-|
A  - x-0-2-2-2-0-|
G  - 3-2-0-0-3-3-|
*Or use barre chords, whatever


INTRO:
D  -  Bm  -  x 2 (see below for tab)


VERSE:
D                                      Bm
Hung out at 711 just to feel sedate.
D                             Bm
Got on the bus at 25 to 8.
D                                          Bm
Got where we're going to but we were late.
D                                        Bm
Everyone agreed you looked really great.


CHORUS:
Bm  A  G
        1234
Bm  A  G
        1234
Bm  A  G
        1234
Bm  A  G


VERSE:
D                                              Bm
Feeling kind of lazy, I don't like this place.
D                                                    Bm
I've got my hood up to here and you can see my face.
D                                                           Bm
Well, I hope that this week goes well, I won't get my grade.
D                                                               Bm
Cause it's nothing like that, it's just you're not in my place.

CHORUS:
Bm  A  G
        1234
Bm  A  G
        1234
Bm  A  G
        1234
Bm  A  G


CHORUS:
Bm  A  G
        1234
Bm  A  G
        1234
Bm  A  G
        1234
Bm  A  G

End on the G



VERSE:
       D                    Bm
e|---|--------------------|-------------------|
B|---|--------------------|-------------------|
G|---|---0---0---------0--|---0---0---0---0---| Guitar I
D|2/4|--4-4-4-4-5/7-0-4-4-|--4-4-4-4-4-4-4-4--|
A|---|-5---5---5-----5----|-2---4---5---5-----|
E|---|--------------------|-------------------|
 |     D                    Bm
e|---|--------------------|-------------------|
B|---|--------------------|-------------------|
G|---|---------7776-66----|-4444666677777777--| Guitar II
D|---|-7777777777777777---|-xxxxxxxxxxxxxxxx--|
A|---|-5555555555555555---|-2222444455555555--|
E|---|--------------------|-------------------|


CHORUS: (in the background you can hear something like this)
  Bm       A       G
e|---------------------------------|
B|---------------------------------|
G|---------------------------------|
D|---4-5-4-7-4-5-4---4-5-4---4-5-4-|
A|-2-------------------------------|
E|-----------------3-------3-------|


CHORUS: (only for last chorus, when he starts singing higher)
  Bm       A       G
e|---------------------------------------|
B|---------------------------------------|
G|-4-4-4-4-6-6-6-6-7-7-7-7-7-7-7-7-------|
D|-x-x-x-x-x-x-x-x-x-x-x-x-x-x-x-x-------|
A|-2-2-2-2-4-4-4-4-5-5-5-5-5-5-5-5-------|
E|---------------------------------------|
comments
We did not receive enough feedback on this tab! Please rate:
print report bad tab
1 2 3 4 5
I want to post or [tab]
guest
You may want to rate the tab now too:
select rating
Please do not post tabs as comments. Select "correction" instead!