Oops, an error
Loading. Please wait.

Plane Vs Tank Vs Submarine tab

version 2
version 2

Whole song

  • More complete as well as more accurate. Included s... Show more
1,018 views 24 this week
no commentswrite comment
1 2 3 4 5
1 last vote to show rating
add to favorites
×
Save as Personal and add changes to this tab that will be seen only by you. Learn more ›
×
You can save this tab as Personal to edit and correct it or add notes. All changes will be seen only by you. Learn more »
launch autoscroll
font size
0
reset
how to read this tab
guitar tuner
edit
Autoscroll
slow
fast
+/-
esc
set tempo
stop
Author
Difficulty
About this tab version
More complete as well as more accurate. Included specific chord variations, strumming patterns and a more detailed verse. Was this info helpful? Yes No
cred to gabbywade from youtube (chords) and casb04 (solo, other contributor). sort of a mix with some tweaks
for accuracy / general completed-ness
personally, i do the strumming down down  down up down, but in the song it sounds more like
down down  down up with each only being played four times per pattern versus the five i have tabbed
also, in the transition to "And I can barely tell..." it changes to some mixed strumming and picking. any 
of that is done in the same pattern as the intro or in the down down down up down / down down down up (5 vs 4)
strum pattern, so i left it up to interpretation and just listed the chords. hope this helps

Am ..... x02210
G ...... 320033
F ...... x33210 (or x33211)
D7sus2 . xx0210
C ...... x32010
C/B .... x2201x (or x22013)

 Am
|------------------------------------------|
|------1------1------------1------1--------|
|----2----0h2---2---2---------0h2---2---2--|
|-----------------2-------------------2----|
|-0--------------------0-0-----------------|
|------------------------------------------|

 Am (Lie to me...)    G                      F                          _____
|------------------------------------------------------------------|
|-----1------1-------------3--------3--------------1------1--------|
|--------0h2---2---2--------0---------0---0------2----0h2---2---2--|
|----------------2----------------------0---------------------3----|
|-0-0-------------------2--------2------------3--------------------|
|---------------------3---------3----------------------------------|
                                                                          X2
 Am             G 
|-0--0--0-0-0---3--3--3-3-3--|
|-1--1--1-1-1---3--3--3-3-3--|
|-2--2--2-2-2---0--0--0-0-0--|
|-2--2--2-2-2---0--0--0-0-0--|
|-0--0--0-0-0---2--2--2-2-2--|
|---------------3--3--3-3-3--|                                           _____

 D7sus2 (...think)                                                       _____
|-0--0--0-0-0--|
|-1--1--1-1-1--|
|-2--2--2-2-2--|                                                           X4
|-0--0--0-0-0--|
|--------------|
|--------------|                                                         _____



         Am                               F
And I can barely tell the sky from the shoreline
             Am                       F
And I can see myself reflected in your eyes

                         C
And this was all a dream
                        C/B
And it's coming back to me
                  Am
A portrait in greyscale
              F
A perfect betrayal
                         C
And I can't even breathe
                           C/B
With this weighing on my chest
                 Am
You knew me at my best
                      F
Now I can't even stand on my own

(i have included the solo, but here instead you could repeat:
    C, C/B, Am, F, and end on x32010)


|--------3---0---------------------------------------------3--3/5|
|--3--5--------2/3-1---1----3/5---3--1---1------1-3---3/5--------|
|--------------------2---2-------------2---2--2------------------|
|----------------------------------------------------------------|
|----------------------------------------------------------------|
|----------------------------------------------------------------|

|3-3-3----3-3------------------------------------0---1-0---------|
|0-0-0---------5-5-5/6-3-3--------------6/8-5--1---1-----3---1---|
|0-0-0---------------------5-5-------5---------------------------|
|----------------------------------------------------------------|
|----------------------------------------------------------------|
|----------------------------------------------------------------|


|----------------------------------------------------------------|
|3/5--5-3--1-------1-1/3-1-3/5-3-1--------1-3-1-3/5-3-1-3/5-3/5--|
|------------2-0h2------------------2-0h2------------------------|
|----------------------------------------------------------------|
|----------------------------------------------------------------|
|----------------------------------------------------------------|

|-------------------------------------------------5-----|
|---1-3-1--1----3/5---3/5----3-1-------1-3-1--3/5---5---|
|2-2------2-2--------------------2-0h2------------------|
|-------------------------------------------------------|
|-------------------------------------------------------|
|-------------------------------------------------------|

|5--8--5--3--1-------------0-1-----0-1------------------|
|---------------5--3---1-3-----1-3------3-3/5-3/5--3--1-|
|-------------------------------------------------------|
|-------------------------------------------------------|
|-------------------------------------------------------|
|-------------------------------------------------------|


|-------------------------------------------------0--|
|--------1-3-1-3h5p3-1---------1-3-1-3/5--3-1-----1--|
|--2-0h2---------------2--0h2-----------------2---0--|
|-------------------------------------------------2--|
|-------------------------------------------------3--|
|----------------------------------------------------|



Suggest correction
Creating personal tab
Creating personal tab
You can edit any tab online and save it as your Personal.

You can edit, replace or remove any tab part or add personal notes – all changes will be seen only by you.

Personal tabs can be accessed anytime from any device, even offline.
Learn more »
Give kudos to tab author, rate the tab!
1 2 3 4 5
comments
print report bad tab
guest
You may want to rate the tab now too:
select rating
Wanna post a correction for this tab? Suggest correction