Oops, an error
Loading. Please wait.

Return Chords

2,849 views 6 this week
1 commentread comment
1 2 3 4 5
excellent!
x 3
add to favorites
launch autoscroll
font size
0
reset
transpose
0
reset
display chords
guitar tuner
Autoscroll
slow
fast
+/-
esc
set tempo
stop
Help us to improve Ultimate-Guitar.com Take our survey!
×
Author
-----------------------------------------------------------------------------
                             RETURN - Tigers Jaw
-----------------------------------------------------------------------------
Tabbed by: Mean Mr Mustard
Email: Gotchristo@comcast.net

Tuning: Standard

This one was tricky, mostly because it uses chords/leads atypical of what they usually 
write. It makes more sense if you put a capo on it, but this is written for no capo.

CHORDS:
Gm  -  3-5-5-3-3-3-|
A#  -  x-1-3-3-3-1-|
Cm  -  x-3-5-5-4-3-|
D#  -  x-6-8-8-8-6-|



SHORT INTRO:
Gm  -  A#    x2


INTRO LICK:
Gm -  A# Cm   x2


VERSE:
Gm                           A#
Keep to myself until its over,
       Cm                    A#
I cant see it but i know its there.
Gm                            A#
And if youd like the sight of failure for a change,
Cm                   A#
Well you can call me anytime.

Gm               A#       D#                      A#
Little boy, with all that weight upon your shoulders,
Gm                 A#      D#       A#
You know you never stood a chance


LEAD LICK:
D# -  A# Cm   x2


CHORUS:
Gm              D#         A#                               Cm
G.L. was a drive and Im outside, and Ive never felt further from home.
Gm           D#            A#                       Cm
Its permanent, like ink on skin. Return is a foreign word.


OUTRO LICK: (Same as intro lick)



SHORT INTRO: (Cant figure out those notes in between the slides)
  Gm                  A#
e|------------------------|
B|------------------------|
G|-3~/------3~/-------3-3-|
D|-5~/0-1-0-5~/-0-1-0-3-3-|
A|--------------------1-1-|
E|------------------------|


INTRO LICK: (Listen for timing)
  Gm                        A#          Cm
e|---------------------------------------------|
B|-8-6-----8-6---------------h-------h---------|
G|-----7-7-----7-7--8-7-5-7-5-7-----5-7--------|
D|------------------------------5-5-----5-5-8--|
A|---------------------------------------------|
E|---------------------------------------------|


LEAD LICK: (Listen for the timing)
  D#                       A#          Cm
e|--------------------------------------h------------|
B|-------------------------------------6-4------h-h--|
G|-----7-7-----7-7------h------7-7---------7-5-3-5-3-|
D|---------------------7-8---------------------------|
A|-6-6-----6-6-----6-6-----6-6-----6-6---------------|
E|---------------------------------------------------|
 |D#                       A#          Cm
e|--------------------------------------h-------------|
B|-------------------------------------6-4--------s---|
G|-----7-7-----7-7------h------7-7---------7-5-5-5/3--|
D|---------------------7-8----------------------------|
A|-6-6-----6-6-----6-6-----6-6-----6-6----------------|
E|----------------------------------------------------|


CHORUS: (A little hard to hear)
  Gm            D#                 A#          Cm
e|-------------|------------------|-----------|------------|
B|-------------|------------------|-----------|------------|
G|-7-7-7-------|-12-12-12---8-108-|-7-7-7-----|-8-8-8---5--|
D|-x-x-x-------|-x--x--x----x-x-x-|-x-x-x-----|-x-x-x---x--|
A|-5-5-5-------|-10-10-10---6-8-6-|-5-5-5-----|-6-6-6---3--|
E|-------------|------------------|-----------|------------|
Suggest correction
What's this?
You can suggest a correction to this tab. Community and Mods will review your correction and vote to approve or reject it.
comments
We did not receive enough feedback on this tab! Please rate:
print report bad tab
1 2 3 4 5
1 comment total.
0 reply
greg_el 84 wrote on August 29 2015, 10:01 am

Sweet tab man

guest
You may want to rate the tab now too:
select rating
Please do not post tabs as comments. Select "correction" instead!