Oops, an error
Loading. Please wait.

Safe In Your Skin Where Am I tab

2,134 views 21 this week
no commentswrite comment
1 2 3 4 5
x 4
add to favorites
×
Save as Personal and add changes to this tab that will be seen only by you. Learn more ›
×
You can save this tab as Personal to edit and correct it or add notes. All changes will be seen only by you. Learn more »
launch autoscroll
font size
0
reset
how to read this tab
guitar tuner
edit
Autoscroll
slow
fast
+/-
esc
set tempo
stop
Tigers Jaw – Safe in your Skin / Where Am I Cover

Some people have asked for the Tigers Jaw version of this tab. I used RIPsteggy's and fistfullofhate's tabs
from the Title Fight version as base and added the changes of the Feet First Productions video on youtube.
If you find any mistakes, please tell me. The strumming pattern is mostly easy to figure out if you watch
the video. Check out my cover of the Title Fight song if you like: https://youtu.be/Bix_QlQchW8

d#|------------------------0---------------|
A#|----------------0h3p0---0----0----------| 
F#|---------0h2----------0-0----0----------| 
C#|-2-2-2-2-0h2------------2----2----------| x3 (he changed the rhythm slightly)
G#|-3-3-3-3-0--------------3---------------| 
D#|----------------------------------------|

d#|------------------------0----------------|
A#|----------------0h3p0---0----------------| 
F#|---------0h2----------0-0----------------| 
C#|-2-2-2-2-0h2------------2----------------| 
G#|-3-3-3-3-0--------------3---------2--3---| 
D#|----------------------------------0--1---|

d#|-----------------------------------------------------| 
A#|-----------------------------------------------------| 
F#|---0----------0--------------0----------0------------| 
C#|--7-7--9~----4-4----2-------7-7--9-----4-4----2------| x4
G#|--5-5--7~----5-5----3-------5-5--7-----5-5----3------| 
D#|--7-7--8--------------------7-7--8-------------------|   

d#|---------------------------------------------------------------------|
A#|---------------------------------------------------------------------|
F#|---4---4--------------------4---4------------------------------------|
C#|--------5------4b5b4-0------------5----------5s7-7-9-9-5-5-----------|
G#|3---3----------555-------2----2--------------------------------------|
D#|----------3-3------------0-------------3-3---------------------------|


Verse ("Another floor...") 
d#|---------------------------------------------------------------------| 
A#|---------------------------------------------------------------------| 
F#|5-5-555-5-9-9-9----5-5-555-5--4-4-4----------------------------------|
C#|5-5-555-5-9-9-9----5-5-555-5--2-2-2----------------------------------| 
G#|3-3-333-3-7-7-7----3-3-333-3--2-2-2----------------------------------| 
D#|------------------------------0-0-0----------------------------------|


Pre-Chorus ("Where am I?") 
d#|---------------------------------------| 
A#|---------------------------------------| 
F#|---------------------------------------| 
C#|5555/999999---5555/99999999------------| x2
G#|5555/999999---5555/99999999------------| 
D#|3333/777777---3333/77777777------------|

Chorus ("This strange routine") 
d#|------------------------------------------------------------------------------| 
A#|------------------------------------------------------------------------------| 
F#|00-0000-000-0000-00-000-------------------------------------------------------| 
C#|55-5555-555-5555-55-555-5-55555-----------------------------------------------| 
G#|33-3333-303-3333-33-033-2-22222-----------------------------------------------| 
D#|--------------------------00000-----------------------------------------------|

Riff/Bridge 
d#|------------------------------------0--------------------------------| 
A#|-----3p0--------0----------3p0-------3-------------------------------| 
F#|------------------0--------------------0-----------------------------| 
C#|2--2--------2---------2--2------------------------x-x-(2nd time)-----| x2
G#|3--3----3---2---------3--3--------2---------------x-x----------------| 
D#|-------------0---------------------0---------------------------------|

Verse
Pre-Chorus
Chorus
Riff/Bridge  x5

End on 

d#|------| 
a#|------| 
f#|--0---|  
c#|--2---| 
g#|--3---|
D#|------| 
Suggest correction
Creating personal tab
Creating personal tab
You can edit any tab online and save it as your Personal.

You can edit, replace or remove any tab part or add personal notes – all changes will be seen only by you.

Personal tabs can be accessed anytime from any device, even offline.
Learn more »
comments
print report bad tab
guest
You may want to rate the tab now too:
select rating
Wanna post a correction for this tab? Suggest correction