Oops, an error
Loading. Please wait.

Static Chords

1,673 views 1 this week
no commentswrite comment
1 2 3 4 5
please rate
add to favorites
launch autoscroll
font size
0
reset
transpose
0
reset
simplify chords
display chords
guitar tuner
Tab Pro tools
  • play this tab
  • loop segment
  • change instrument
  • show fretboard
  • metronome
×
Best way to learn
"Static"
Autoscroll
slow
fast
+/-
esc
set tempo
stop
Contributor
-----------------------------------------------------------------------------
                             STATIC - Tigers Jaw
-----------------------------------------------------------------------------
Tabbed by: Mean Mr Mustard
Email: Gotchristo@comcast.net

Tuning: Standard

Im a little iffy still about the interlude part, but Ive been trying to figure it out 
for a while now with no hope and Ive had everything else done, so here it is.


CHORDS:
Am   -  x-0-2-2-1-0  (in the chorus its x-0-2-2-1-3
C    -  x-3-2-0-1-0
G    -  3-2-0-0-0-3
Em   -  0-2-2-0-0-0
F    -  1-3-3-2-1-1


INTRO: (see intro lead)
Am   C   C   G    x4


VERSE:
Hello old friend,
Am    C    C           G
             You are a vanishing act.
Am    C    C       G
             Youre sending signals,
Am    C    C    G
             Im receiving static.
Am    C    C     G


CHORUS: (arpeggiate chords)
Am                            F
Maybe if he was more like his brother, hed have it together.
Am                                  F
And I cant take the helplessness of being so far away.
Am                F
Maybe I drive too fast when Im alone,
Am            F
But who would know?


INTERLUDE: (meh, really hard to make out, but this is what I play, any corrections to 
this part are welcome.)

C    C/B  Am    C
C    C/B  Am    G
F    F    F     F
Am   C    G     C

F                          Am    C    G      C
I can take whats left of this            and reconstruct.
F                             Am    C    G     C
It makes sense in the past tense,
F                         Am    C    G     C
Cant hold its weight today.
F                          (drum fill)
Where is our solid ground?


OUTRO:
Am         G           F
My head it lies at the confluence
     Am     G        F
Of insanity here in my room
       Am         G   F
And of catastrophe in letters,
Am       G         F
I cannot see my own hands.


OUTRO LEAD:
Am   G   F   -     x4



INTRO LEAD:
e|-------------------------|
B|-------------------------|
G|-------------------------|
D|-/7--5-5--5-5--5----5----|
A|-----------------/7---7--|
E|-------------------------|


OUTRO LEAD:
  Am       G       F          Am       G       F
e|---------------------------|----------------------------|
B|---------------------------|----------------------------|
G|----9-------9------9---9^--|----9-------9------9---9^^--|
D|---------------------------|----------------------------|
A|-12---12-10---10-8---8---8-|-12---12-10---10-8---8------|
E|---------------------------|----------------------------|
comments
We did not receive enough feedback on this tab! Please rate:
print report bad tab
1 2 3 4 5
I want to post or [tab]
guest
You may want to rate the tab now too:
select rating
Please do not post tabs as comments. Select "correction" instead!