Oops, an error
Loading. Please wait.

Test Patterns Chords

2,223 views 6 this week
1 commentread comment
1 2 3 4 5
1 last vote to show rating
add to favorites
launch autoscroll
font size
0
reset
transpose
0
reset
simplify chords
display chords
guitar tuner
Autoscroll
slow
fast
+/-
esc
set tempo
stop
Help us to improve Ultimate-Guitar.com Take our survey!
×
-----------------------------------------------------------------------------
                             TEST PATTERNS - Tigers Jaw
-----------------------------------------------------------------------------
Great song, here you go. I put the guitar tabs below the chords.


INTRO:
Am  G   F    x4


VERSE:
F          Am      C                         G      Em    
I tried so hard to be the one that you would think about on
F
your train ride back home.
Am     C      G      C
F
You told me 
Am                C           G             Em     F      G#5
you would like me better if I didn’t always try so hard.


CHORUS:
Am                    F
And I don’t feel so invincible anymore
Am     C      G      Em      F      G#5


INTERLUDE: x2
F       Am    


CHORUS:
Am                    F
And I don’t feel so invincible anymore
Am     C      G      Em      F      G#5


OUTRO: (see riff)
F    Am



INTRO:
  Am          G           F
e|---------------------------------------------|
B|---------------------------------------------|
G|-5--5-7-5-x5---5-7-5-x5---5-7-5-x4--4-45--5--|
D|-x--x-x-x-xx---x-x-x-xx---x-x-x-xx--x-xx--x--|
A|-3--3-5-3-x3---3-5-3-x3---3-5-3-x2--2-23--3--|
E|---------------------------------------------|

e|----------------------------------------|
B|----------------------------------------|
G|-5--5-x-4--4-x-7--7-x-9--9-x------------|
D|-x--x-x-x--x-x-x--x-x-x--x-x--3---3-----|
A|-3--3-x-2--2-x-5--5-x-7--7-x--3---3-----|
E|------------------------------1---1-----|


CHORUS: (after "I dont feel so invincible anymore")
e|------------------------------------------------------|
B|------------------------------------------------------|
G|-------5--5---------------9--9--9-9-9-13--13--13--13--|
D|-7--7--5--5--5--5--2--2---x--x--x-x-x-x---x---x---x---|
A|-7--7--3--3--5--5--2--2---7--7--7-7-7-11--11--11--11--|
E|-5--5--------3--3--0--0-------------------------------|


INTERLUDE:
   F                     Am
e|------------------------------------------------------|
B|------------------------------------------------------|
G|-9---9-9-9--9--9--9-9--9--9-12-9--9-12-9--9--9-7--5---|
D|-x---x-x-x--x--x--x-x--x--x-x--x--x-x--x--x--x-x--x---|
A|-7---7-7-7--7--7--7-7--7--7-10-7--7-10-7--7--7-5--3---|
E|------------------------------------------------------|


OUTRO:
  F                    Am
e|-------------------------------------------|
B|-------------------------------------------|
G|-------------------------------------------|
D|-------------2-0---------2-----2-0---0-2---|
A|-----3-----2-----3-2-0-0-0---3-----2-------|
E|-1-1-1---3---------------------------------|
   pm.                 . .
Suggest correction
Give kudos to tab author, rate the tab!
1 2 3 4 5
comments
print report bad tab
1 comment total.
0 reply
migle20 52 Sep 06, 2015 07:28 AM

Perfect, except the the last part of ther outro should be

OUTRO:
F Am
e|-------------------------------------------|
B|-------------------------------------------|
G|-------------------------------------------|
D|-------------2-0---------2-----2-0---0-----|
A|-----3-----2-----3-2-0-0-0---3-----2----3--|
E|-1-1-1---3---------------------------------|
pm. . .

guest
You may want to rate the tab now too:
select rating
Wanna post a correction for this tab? Suggest correction