Oops, an error
Loading. Please wait.

We Are Great There Is Only One Tigers Jaw Chords

2,182 views 1 this week
1 commentread comment
1 2 3 4 5
please rate
add to favorites
launch autoscroll
font size
0
reset
transpose
0
reset
display chords
guitar tuner
Autoscroll
slow
fast
+/-
esc
set tempo
stop
Help us to improve Ultimate-Guitar.com Take our survey!
×
-----------------------------------------------------------------------------  
       WE ARE GREAT, THERE IS ONLY ONE (TIGERS JAW) - Tigers Jaw
-----------------------------------------------------------------------------
Tabbed by: Mean Mr Mustard
Email: Gotchristo@comcast.net

Tuning: Standard

Fun song, and easy song. Included the lead parts at the bottom, enjoy.

Chords:
C   -  x-3-2-0-1-0
G   -  3-2-0-0-3-3
D   -  x-x-0-2-3-2
Em  -  0-2-2-0-0-0

VERSE:
C
All your friends are getting older,
C                                 G       D       
All your friends are moving on.
C
Forget everything you've ever said,
C                  G        D
Stop pretending.


CHORUS:
       Em             C               G                D
I have every ounce of confidence that you will fix all that you've wrecked.
       Em             C               G                D
I have every ounce of confidence that you will fix all that you've wrecked.
       Em             C               G                D
I have every ounce of confidence that you will fix all that you've wrecked.
       Em             C               G                D
I have every ounce of confidence that you will fix all that you've wrecked.

C (Strum)


GUITAR SOLO:
G      Em
C      C
G      Em
C      C
G      D


CHORUS:
       Em             C               G                D
I have every ounce of confidence that you will fix all that you've wrecked.
       Em             C               G                D
I have every ounce of confidence that you will fix all that you've wrecked.
       Em             C               G                D
I have every ounce of confidence that you will fix all that you've wrecked.
       Em             C               G                D
I have every ounce of confidence 

End on Em



VERSE LEAD:
  C                                  G      D
e|------------------------------------------------|
B|------------------------------------------------|
G|-4-4-444----------------------------------------|
D|-x-x-xxx5-5-5554--4-4445--5-555-5-5-5557--7-777-|
A|-3-3-3333-3-3333--3-3333--3-333-x-x-xxxx--x-xxx-|
E|--------------------------------3-3-3335--5-555-|

GUITAR SOLO:
  C                             Em
e|-----------------------------|-----------------------------|
B|-----------------------------|-----------------------------|
G|-12-12-12-12121211-1112-1212-|-12-12-12-12121211-1112-1212-|
D|-x--x--x--x-x-x-x--x-x--x-x--|-x--x--x--x-x-x-x--x-x--x-x--|
A|-10-10-10-1010109--9-10-1010-|-10-10-10-1010109--9-10-1010-|
E|-----------------------------|-----------------------------|
  G                     G
e|---------------------|--------------------|
B|---------------------|--------------------|
G|-7-7-777/9--7--5--444|4-7-777/9--7--5--44-|
D|-x-x-xxx-x--x--x--xxx|x-x-xxx-x--x--x--xx-|
A|-5-5-555/7--5--3--222|2-5-555/7--5--3--22-|
E|---------------------|--------------------|
Suggest correction
Give kudos to tab author, rate the tab!
1 2 3 4 5
comments
print report bad tab
1 comment total.
0 reply
mkunz16 135 wrote on May 5 2015, 02:07 pm, edited at 02:07 pm

Great tab dude! One small suggestion (not correction) on the verse lead:

e|------------------------------------------------|
B|------------------------------------------------|
G|-4-4-444--7-777---------------------------------|
D|-x-x-xxx5-5-5554--4-4445--5-555-5-5-5557--7-777-|
A|-3-3-3333-3-3333--3-3333--3-333-x-x-xxxx--x-xxx-|
E|--------------------------------3-3-3335--5-555-|

Add that extra 7 on top of the first group of C power chords. Gives it that higher tone that you hear in the song.

Cheers!

guest
You may want to rate the tab now too:
select rating
Please do not post tabs as comments. Select "correction" instead!