Oops, an error
Loading. Please wait.

We Are Great There Is Only One Tigers Jaw ukulele

185 views 1 this week
no commentswrite comment
1 2 3 4 5
3 more votes to show rating
add to favorites
×
Save as Personal and add changes to this tab that will be seen only by you. Learn more ›
×
You can save this tab as Personal to edit and correct it or add notes. All changes will be seen only by you. Learn more »
launch autoscroll
font size
0
reset
transpose
0
reset
display chords
guitar tuner
edit
Autoscroll
slow
fast
+/-
esc
set tempo
stop
Strumming
There is no strumming pattern for this song yet. and get +5 IQ
-----------------------------------------------------------------------------  
       WE ARE GREAT, THERE IS ONLY ONE (TIGERS JAW) - Tigers Jaw
-----------------------------------------------------------------------------
Tabbed by: Mean Mr Mustard
Email: Gotchristo@comcast.net

Tuning: Standard

Fun song, and easy song. Included the lead parts at the bottom, enjoy.

Chords:
F   -  x-3-2-0-1-0
C   -  3-2-0-0-3-3
G   -  x-x-0-2-3-2
Am  -  0-2-2-0-0-0

VERSE:
F
All your friends are getting older,
F                                 C       G       
All your friends are moving on.
F
Forget everything you've ever said,
F                  C        G
Stop pretending.


CHORUS:
       Am             F               C                G
I have every ounce of confidence that you will fix all that you've wrecked.
       Am             F               C                G
I have every ounce of confidence that you will fix all that you've wrecked.
       Am             F               C                G
I have every ounce of confidence that you will fix all that you've wrecked.
       Am             F               C                G
I have every ounce of confidence that you will fix all that you've wrecked.

F (Strum)


GUITAR SOLO:
C      Am
F      F
C      Am
F      F
C      G


CHORUS:
       Am             F               C                G
I have every ounce of confidence that you will fix all that you've wrecked.
       Am             F               C                G
I have every ounce of confidence that you will fix all that you've wrecked.
       Am             F               C                G
I have every ounce of confidence that you will fix all that you've wrecked.
       Am             F               C                G
I have every ounce of confidence 

End on Em



VERSE LEAD:
  F                                  C      G
e|------------------------------------------------|
B|------------------------------------------------|
G|-4-4-444----------------------------------------|
D|-x-x-xxx5-5-5554--4-4445--5-555-5-5-5557--7-777-|
A|-3-3-3333-3-3333--3-3333--3-333-x-x-xxxx--x-xxx-|
E|--------------------------------3-3-3335--5-555-|

GUITAR SOLO:
  F                             Am
e|-----------------------------|-----------------------------|
B|-----------------------------|-----------------------------|
G|-12-12-12-12121211-1112-1212-|-12-12-12-12121211-1112-1212-|
D|-x--x--x--x-x-x-x--x-x--x-x--|-x--x--x--x-x-x-x--x-x--x-x--|
A|-10-10-10-1010109--9-10-1010-|-10-10-10-1010109--9-10-1010-|
E|-----------------------------|-----------------------------|
  C                     C
e|---------------------|--------------------|
B|---------------------|--------------------|
G|-7-7-777/9--7--5--444|4-7-777/9--7--5--44-|
D|-x-x-xxx-x--x--x--xxx|x-x-xxx-x--x--x--xx-|
A|-5-5-555/7--5--3--222|2-5-555/7--5--3--22-|
E|---------------------|--------------------|

            
            
Suggest correction
Creating personal tab
Creating personal tab
You can edit any tab online and save it as your Personal.

You can edit, replace or remove any tab part or add personal notes – all changes will be seen only by you.

Personal tabs can be accessed anytime from any device, even offline.
Learn more »
Give kudos to tab author, rate the tab!
1 2 3 4 5
comments
print report bad tab
guest
Wanna post a correction for this tab? Suggest correction