Oops, an error
Loading. Please wait.

Windmills Chords

version 1
version 1

Whole song

Interactive

1,734 views 1 this week
no commentswrite comment
1 2 3 4 5
please rate
add to favorites
launch autoscroll
font size
0
reset
transpose
0
reset
display chords
guitar tuner
Autoscroll
slow
fast
+/-
esc
set tempo
stop
Help us to improve Ultimate-Guitar.com Take our survey!
×
Author
-----------------------------------------------------------------------------
                             WINDMILLS - Tigers Jaw
-----------------------------------------------------------------------------
Tabbed by: Mean Mr Mustard
Email: Gotchristo@comcast.net

Tuning: Standard

Great great song. A little complex though, so I may submit a guitar pro version later, 
but here's the basics of it now.

CHORDS:
D   -  x-5-7-7-7-x-|
G   -  3-5-5-4-3-3-|
Bm  -  7-9-9-7-7-7-|
A   -  5-7-7-6-5-5-|


VERSE:
D                 G
I know I should relax.
D                              Bm
Do you remember me not calling back?
G
I was dumb.


VERSE:
D                   G
Good call the other day.
D                                Bm
I know not everything could be escaped
            G
But how can I face the day?


INTERLUDE:
Bm   A   G   x 3
G        G


VERSE:
D                             G
I know that I should be more alive.
D                             Bm
Sometimes I wish I never came around
G
But other times, it’s not that bad.


GUITAR SOLO:
D      G
D      G
A      D
Bm     A

End on D


VERSE:
  D            G                       D            G
e|---------|--|-----------------------|---------|--|----------------------|
B|---------|--|-8-7-------8-7---5--7--|---------|--|-5-7--8-7--5-7--8-7---|
G|-7-7--77-|x4|-----7-777-----7-------|-7-7--77-|x4|-----7----7----7----7-|
D|-x-x--xx-|--|-----------------------|-x-x--xx-|--|----------------------|
A|-5-5--55-|--|-----------------------|-5-5--55-|--|----------------------|
E|---------|--|-----------------------|---------|--|----------------------|
And then...
  G
e|------------------------------------------------------------------------------|
B|------------------------------------------------------------------------------|
G|-1111111111111111-9-9-9-9-9-9-9-9-111111111111111-1414141414141414---|
D|-x-x-x-x-x-x-x-x--x-x-x-x-x-x-x-x-x-x-x-x-x-x-x-x-x-x-x-x-x-x-x-x-------------|
A|-9-9-9-9-9-9-9-9--7-7-7-7-7-7-7-7-9-9-9-9-9-9-9-9-1212121212121212------------|
E|------------------------------------------------------------------------------|


INTERLUDE:
  Bm       A       G                     G
e|----------------------------------|--|---------------------------------------------|
B|----------------------------------|--|---------------------------------------------|
G|-16161616141414141212121212121212-|x3|-111111111111111-1212121212121212---|
D|-x-x-x-x-x-x-x-x-x-x-x-x-x-x-x-x--|--|-x-x-x-x-x-x-x-x-x-x-x-x-x-x-x-x-------------|
A|-14141414121212121010101010101010-|--|-9-9-9-9-9-9-9-9-1010101010101010------------|
E|----------------------------------|--|---------------------------------------------|


GUITAR SOLO:
  D                         G
e|-------------------------|----------------------------|
B|-------------------------|----------------------------|
G|-1414141214---14141214-9-|-111111911--7---1111911--7--|
D|-x-x-x-x-x----x-x-x-x--x-|-x-x-x-x-x--x---x-x-x-x--x--|
A|-1212121012---12121012-7-|-9-9-9-7-9--5---9-9-7-9--5--|
E|-------------------------|----------------------------|
  D                         G
e|-------------------------|-----------------------------------|
B|-------------------------|-----------------------------------|
G|-1414141214---14141214-9-|-1111119-9-9-1212121111119-9-1111--|
D|-x-x-x-x-x----x-x-x-x--x-|-x-x-x-x-x-x-x-x-x-x-x-x-x-x-x-x---|
A|-1212121012---12121012-7-|-9-9-9-7-7-7-1010109-9-9-7-7-9-9---|
E|-------------------------|-----------------------------------|
  A                                 D
e|---------------------------------|------------------------------------|
B|---------------------------------|------------------------------------|
G|-11111111111111111414141414149-9-|-11111111111111111-1212121111119-9--|
D|-x-x-x-x-x-x-x-x-x-x-x-x-x-x-x-x-|-x-x-x-x-x-x-x-x-x-x-x-x-x-x-x-x-x--|
A|-9-9-9-9-9-9-9-9-1212121212127-7-|-9-9-9-9-9-9-9-9-9-1010109-9-9-7-7--|
E|---------------------------------|------------------------------------|
  Bm                                  A                               D
e|-----------------------------------|-------------------------------|-----|
B|-----------------------------------|-------------------------------|-----|
G|-11111111111111111-9-9-9-9-9-9-9-9-|-7-7-7-7-7-7-7-9-9-9-9-9-7-7-7-|-7-~-|
D|-x-x-x-x-x-x-x-x-x-x-x-x-x-x-x-x-x-|-x-x-x-x-x-x-x-x-x-x-x-x-x-x-x-|-x---|
A|-9-9-9-9-9-9-9-9-9-7-7-7-7-7-7-7-7-|-5-5-5-5-5-5-5-7-7-7-7-7-5-5-5-|-5-~-|
E|-----------------------------------|-------------------------------|-----|
Suggest correction
What's this?
You can suggest a correction to this tab. Community and Mods will review your correction and vote to approve or reject it.
comments
We did not receive enough feedback on this tab! Please rate:
print report bad tab
1 2 3 4 5
guest
You may want to rate the tab now too:
select rating
Please do not post tabs as comments. Select "correction" instead!