Oops, an error
Loading. Please wait.

Livin Without You Tab

917 views 1 this week
2 commentsread comments
1 2 3 4 5
please rate
add to favorites
launch autoscroll
font size
0
reset
how to read this tab
guitar tuner
Autoscroll
slow
fast
+/-
esc
set tempo
stop
Help us to improve Ultimate-Guitar.com Take our survey!
×
Contributor
Tuning
D# G# C# F# A# D#

                                           TIGERTAILZ
                                       LIVIN' WITHOUT YOU

                                           


Here is my attempt at tabbing this most excellent song by a most excellent glam metal band.

Have fun...

key
b  = bend
r  = release bend
PM = Palm mute
~  = vibrato
~~ = long vibrato
h  = hammer on
p  = pull off
t  = tap

(all rather obvious really)

intro

  Eb|------------------------|
  Bb|------------------------|
  Gb|------------------------|
  Db|-7-5-7-10-10----9-7-----|
  Ab|-5-3-5--7--7-00-7-5-----|
  Eb|------------------------|
                 [PM]




verse

  Eb|-----|---------------------------------------------|
  Bb|-----|-------------------------------------7-------|
  Gb|-----|-------------------------------------5-------|
  Db|-5---|-7-----10---9----5-5-7----10---9-10-9--------|
  Ab|-3---|-5555--8888-7777-3-3-5555-8888-7--8-7--------|
  Eb|-----|---------------------------------------------|
           [------PM------]     [------PM------]
                           
 Chorus

  Eb|--------------------------------------|
  Bb|-----------------------------T--T-----|
  Gb|----5--2---222------5--2-----10-9-----|
  Db|-5--3--0---000---5--3--0-----^--^-----|
  Ab|-3---------^^^---3-----------|--|-----|
  Eb|-----------|||---------------|--|-----|
                |||               |  |
                |||               |  |
             [Hit these           |  |
            very lightly]------------|


interlude part

  Eb|--------------------------------------|
  Bb|-------------10--8-7-7-7--------------|
  Gb|-------------9---7-7-7-7--------------|
  Db|-5-7-7-5-7----------------------------|
  Ab|-3-5-5-3-5----------------------------|
  Eb|--------------------------------------|


  Eb|--------------------------------------|
  Bb|-------------10--8--12----------------|
  Gb|-------------9---7--11----------------|
  Db|-5-7-7-5-7----------------------------|
  Ab|-3-5-5-3-5----------------------------|
  Eb|--------------------------------------|


  Eb|--------------------------------------|
  Bb|-------------10--8-7-7-7--------------|
  Gb|-------------9---7-7-7-7--------------|
  Db|-5-7-7-5-7----------------------------|
  Ab|-3-5-5-3-5----------------------------|
  Eb|--------------------------------------|


  Eb|--------------------------------------|
  Bb|-------------10--8--12----------------|
  Gb|-------------9---7--11----------------|
  Db|-5-7-7-5-7----------------------------|
  Ab|-3-5-5-3-5----------------------------|
  Eb|--------------------------------------|



Solo


  Eb|--19b21~~-------h---t-p---t-p--p---x2---h---t-p---t-p--p---x2-|
  Bb|--------------10-13-17-13-17-13-10----10-13-18-13-18-13-10----|
  Gb|--------------------------------------------------------------|
  Db|--------------------------------------------------------------|
  Ab|--------------------------------------------------------------|
  Eb|--------------------------------------------------------------|


 
  Eb|--t-p--------------------t-p----------------------------------|
  Bb|--17-10b11r10---10-11-13-17-10--10-13-13-11-11-10-10----------|
  Gb|--------------------------------------------------------------|
  Db|--------------------------------------------------------------|
  Ab|--------------------------------------------------------------|
  Eb|--------------------------------------------------------------|


  Eb|----------10----10-12-10-12-13-15b17~-------------------------|
  Bb|-10-11-13----13-----------------------------------------------|
  Gb|--------------------------------------------------------------|
  Db|--------------------------------------------------------------|
  Ab|--------------------------------------------------------------|
  Eb|--------------------------------------------------------------|



  Hope you enjoyed it
  Rock on
  Roxxie Roxx

Suggest correction new What's this?
You can suggest a correction to this tab. Community and Mods will review your correction and vote to approve or reject it.
comments
We did not receive enough feedback on this tab! Please rate:
print report bad tab
1 2 3 4 5
2 comments total.
0 reply
CinderellaFan14 536 wrote on January 29 2012, 04:18 pm

pretty good tab. Love the song :D

0 reply
Rocknrolla35 537 wrote on November 18 2013, 04:48 am

Roxxie, are you sure your tab is right? When i listened to the song on Youtube, it sounded different from your tab.

I want to post or [tab]
guest
You may want to rate the tab now too:
select rating
Please do not post tabs as comments. Select "correction" instead!