Oops, an error
Loading. Please wait.

Noise Level Critical Tab

588 views 3 this week
1 commentread comment
1 2 3 4 5
accurate
x 1
add to favorites
launch autoscroll
font size
0
reset
how to read this tab
guitar tuner
Tab Pro tools
  • play this tab
  • loop segment
  • change instrument
  • show fretboard
  • metronome
Autoscroll
slow
fast
+/-
esc
set tempo
stop
Contributor
Difficulty
Tuning
novice
D# G# C# F# A# D#
This is my first tab and i'm awful at learning stuff by ear but i really wanted to learn 
song. i don't have the full tabs but this is all i've got so far.
if anyone else can figure anymore out please send me a message

Finger picked
|-----------------------------------------------------------------------------|
|---3--3--3--3--3-----3-3s6--3--3--3--3--3----3-3-2---------------------------|
|---2--2--2--2--2-----2-2s5--2--2--2--2--2----2-2-2---------------------------|
|-----------------------------------------------------------------------------|
|-----------------------------------------------------------------------------|
|-----------------------------------------------------------------------------|

|-----------------------------------------------------------------------------|
|---3--3--3--3--3-----3-3s6--3--3--3--3--3----3-3-2---------------------------|
|---2--2--2--2--2-----2-2s5--2--2--2--2--2----2-2-2---------------------------|
|-----------------------------------------------------------------------------|
|-----------------------------------------------------------------------------|
|-----------------------------------------------------------------------------|

|-----------------------------------------------------------------------------|
|---3--3--3--3--3-----3-3s5-5b5-3---3--3--3--3--3----3-3-2--------------------|
|---2--2--2--2--2-----2-2s4---------2--2--2--2--2----2-2-2--------------------|
|-----------------------------------------------------------------------------|
|-----------------------------------------------------------------------------|
|-----------------------------------------------------------------------------|

|-----------------------------------------------------------------------------|
|---3--3--3--3--3-----3-3s5-5b5-3---3--3--3--3--3----3-3-2--------------------|
|---2--2--2--2--2-----2-2s4---------2--2--2--2--2----2-2-2--------------------|
|-----------------------------------------------------------------------------|
|-----------------------------------------------------------------------------|
|-----------------------------------------------------------------------------|

|-----------------------------------------------------------------------------|
|---3--3--3--3--3-----3-3s6--3--3--3--3--3----3-3-2---------------------------|
|---2--2--2--2--2-----2-2s5--2--2--2--2--2----2-2-2---------------------------|
|-----------------------------------------------------------------------------|
|-----------------------------------------------------------------------------|
|-----------------------------------------------------------------------------|

 With Pick                    x3
|-----|--------------------------------------|--------------------------------|
|-----|--------------------------------------|--------------------------------|
|-----|------------------------------9-7-----|----7---------------------------|
|-9-7-|-9-7-------9-9-7------9-9-9-7-7-5-----|----5-7-9-9---------------------|
|-7-5-|-7-5-9-----7-7-5-9----7-7-7-5---------|------5-7-7---------------------|
|-----|-----7-----------7--------------------|--------------------------------|
comments
We did not receive enough feedback on this tab! Please rate:
print report bad tab
1 2 3 4 5
1 comment total.
0 reply
DanielTA wrote on December 22 2009, 09:34 am

I think this is more correct:

|---2--2--2--2--2-----2-2s4--2--2--2--2--2----2-2-1-|
|---3--3--3--3--3-----3-3s5--3--3--3--3--3----3-3-1-|

and that last riff should be:

|-----|--------------------------------------|
|-----|--------------------------------------|
|-----|------------------------------9-------|
|-9-7-|-9-7-------9-9-7------9-9-9-7-7-9-----|
|-7-5-|-7-5-9-----7-7-5-9----7-7-7-5---7-----|
|-----|-----7-----------7--------------------|

I want to post or [tab]
guest
You may want to rate the tab now too:
select rating
Please do not post tabs as comments. Select "correction" instead!