Oops, an error
Loading. Please wait.

Bailame Bass Tab

67 views 1 this week
no commentswrite comment
1 2 3 4 5
3 more votes to show rating
add to favorites
launch autoscroll
font size
0
reset
guitar tuner
Autoscroll
slow
fast
+/-
esc
set tempo
stop
Help us to improve Ultimate-Guitar.com Take our survey!
×
Kiubo raza!!
aqui les va esta rola de los Tigrillos.

Al principio da unos golpes en RE
asi:

B-33-33

  *(fig. 1)
G-------------
D-------------
A-----5-----5-
E---5-----5---  
B-3-----3-----

 *(fig 2)
G---------------
D---------------
A---5-----5-----  aqui le siguen hasta ke sientan el cambio
E-3-----5-----3-
B-----3-----3---

'Listos que todas las muchachas quieren bailar....'
*(fig. 1)

Luego mete estas escalillas:
 *(fig 3)
  
  |----*escala-----|
G---------------------------
D-7-5-4---------------------
A-------7-5-2---------------
E-------------5-2-----------
B-----------------3--33-3333-

'Bailame...
*(fig 1)
en un pedacito le mete asi:

        |---esto---|
G-------------------------
D-------------------------
A-----5---3-4-5---5-----5-
E---5-----------5-----5---
B-3-----3-----------3-----
 
despues:

*(fig 3) =la escala

*(fig 1)

*(fig 2)

*(fig 3)

*(fig 1)

*(fig 3) la escala. solo ke no da los golpes al ultimo
, pues mete esto:

G---------------
D---------------
A---------------
E---------------
B-0-3-4-0-3-4-4-

es todo!!
listo, nomas como siempre digo, chequen los tiempos
para saber en donde va cada figura.

*dudas-correcciones-comentarios a

chuy_nomas@
Suggest correction
Give kudos to tab author, rate the tab!
1 2 3 4 5
comments
print report bad tab
guest
You may want to rate the tab now too:
select rating
Wanna post a correction for this tab? Suggest correction