Oops, an error
Loading. Please wait.

Bailame Tab

119 views 1 this week
no commentswrite comment
1 2 3 4 5
3 more votes to show rating
add to favorites
launch autoscroll
font size
0
reset
how to read this tab
guitar tuner
Autoscroll
slow
fast
+/-
esc
set tempo
stop
Help us to improve Ultimate-Guitar.com Take our survey!
×
HOLA AMIGOS YO SOY ABBI(ISI) ESTA ES MI PRIMERA TRANSCRIPCION
PARA LA CUERDA; LA ROLA ESTA SUMAMENTE FACIL
SOLAMENTE HAY QUE SABERLE DAR EL RITMO,OIGAN LA CANCION
DEDICADA A MI FLOTA LOS ALL STARS DE VILANUEVA K LES MANDO UN SALUDO
SUERTE, BUEN ROLLO!!!!!!!!!!!!!!!!!!!!!!!!!

------------------------------
--55--------------55----------
--------44-7-5-4------4--7-5-4
-----55--------------5--------
------------------------------
------------------------------

------------------------------
--55--------------55----------
--------44-7-5-4------4--7-5-4
-----55--------------5--------
------------------------------
------------------------------

------------------------------
--55--------------55----------
--------44-7-5-4------4--7-5-4
-----55--------------5--------
------------------------------
------------------------------

------------------------------
--55--------------55----------
--------44-7-5-4------4--7-5-4
-----55--------------5--------
------------------------------
------------------------------
Suggest correction
Give kudos to tab author, rate the tab!
1 2 3 4 5
comments
print report bad tab
guest
You may want to rate the tab now too:
select rating
Wanna post a correction for this tab? Suggest correction