Oops, an error
Loading. Please wait.

Cacique Mocorongo Tab

82 views 1 this week
no commentswrite comment
1 2 3 4 5
3 more votes to show rating
add to favorites
launch autoscroll
font size
0
reset
how to read this tab
guitar tuner
×
Best way to learn
"Cacique Mocorongo"
Autoscroll
slow
fast
+/-
esc
set tempo
stop
ESTA TABLATURA VA DEDICADA A MI PRECIOSA HIJA 'ANDREA'
TAMBIEN AGRADESCO A UN GRAN AMIGO FABO POR COOPERAR


__
  \
   6|---------------------------------------
 ) 5|--8------------------------------------
   4|----8-8-8-------------------8-10-10----
   3|----------7-10-10-10-7-10-7------------
 ) 2|---------------------------------------
   1|---------------------------------------
__/


__
  \
   6|----------------------------------------
 ) 5|--8-------------------------------------
   4|----777-10---------10---10-7-8----------
   3|-----------8-8-8-8----8-----------------
 ) 2|----------------------------------------
   1|----------------------------------------
__/

_
  \
   6|----------------------------------------
 ) 5|----------------------------------------
   4|--8---8-8-8---8-8-8---8--8-7------------
   3|----7-------7-------7--7----------------
 ) 2|----------------------------------------
   1|----------------------------------------
__/

__
  \
   6|---------------------------------------
 ) 5|---------------------------------------
   4|--7---7-7-7---7-7-7---7---7-8----------
   3|----5-------5-------5---5--------------
 ) 2|---------------------------------------
   1|---------------------------------------
__/


LA CANCION ESTA BASTANTE FACIL Y TAMBIEN MUY MOVIDA
NADA MAS DE PRACTICARLA UN POKO

KUALKIER DUDA KOMENTARIO O PETICION A MI MAIL
GILBERTO74@
Suggest correction
Give kudos to tab author, rate the tab!
1 2 3 4 5
comments
print report bad tab
guest
You may want to rate the tab now too:
select rating
Wanna post a correction for this tab? Suggest correction