Oops, an error
Loading. Please wait.

Mira Oye Tab

version 1
version 1

Whole song

193 views 1 this week
no commentswrite comment
1 2 3 4 5
3 more votes to show rating
add to favorites
launch autoscroll
font size
0
reset
how to read this tab
guitar tuner
×
Best way to learn
"Mira Oye"
Autoscroll
slow
fast
+/-
esc
set tempo
stop
Hola , a toÐo§!
£§ta ®ola £§ta mu¥ ?a©il, a§í qu£ no hab®á p®obl£ma pa®a
to©a®la.

Intro:
e|-------------------------------------------------------------------------------
B|-------------------------------------------------------------------------------
G|-------------------------------------------------------------------------------
D|-------------------------------------------------------------------------------
A|-5--3--------3--5--3--1--------1--3--1----5--3--------3--5--3--1--------1--3-1-
E|-------5--5--------------3--3-------------------5--5--------------3--3---------


e|------------------------------------------------------------------------
B|------------------------------------------------------------------------
G|------------------------------------------------------------------------
D|------------------------------------------------------------------------
A|-5-3---3-5-3---5---3-1---1-3-1---3---5-3---3-5-3---5---3-1---1-3-1---3--
E|-----5-------5---------3-------3---------5-------5---------3-------3----

ACORDEÓN.
e|--------------------------------------------------------------------------
B|--------------------------------------------------------------------------
G|--------------------------------------------------------------------------
D|--------3--------3----------2--------2----------3---------2-3-2-----------
A|-5-5-5-5--5-5-5-5---3-3-3-3---3-3-3-3----5-5-5-5---3-3-3-3-----5-3-5---3-5
E|--------------------------------------------------------------------------

Dm                       C
Mira esta cumbia si la gozo
Dm                    C
Oye , este ritmo cadencioso

Dm                     C
Mira este baile es contagioso
Dm                     C
Oye que gozar va ser dichoso

Dm
Tienes que bailar, tienes que bailar
C
Mi pareja serás tu.

Dm
Déjate llevar , déjate llevar
C
Suelta el cuerpo como yo.

Dm
Pronto aprenderás, pronto aprenderás
C
Si tu sientes el sabor.
Dm
Tu vas a vivir, tu vas vivir
C
Toda toda de emoción.

Dm
Mueve tu cintura, mueve tu cintura
C
Mueve tu cadera, mueve tu cadera.


Dm
Mueve tu cintura, tu cadera, tu cintura
C
Muévete y remueve sentirás la sabrosura.

Dm
Mueve tu cintura, mueve tu cintura
C
Mueve tu cadera, mueve tu cadera.

Dm
Mueve tu cintura, tu cadera, tu cintura
C
Gira gira gira de locura, ohohohoh.

e|-------------------------------------------------------------------------------
B|-------------------------------------------------------------------------------
G|-------------------------------------------------------------------------------
D|-------------------------------------------------------------------------------
A|-5--3--------3--5--3--1--------1--3--1----5--3--------3--5--3--1--------1--3-1-
E|-------5--5--------------3--3-------------------5--5--------------3--3---------


e|------------------------------------------------------------------------
B|------------------------------------------------------------------------
G|------------------------------------------------------------------------
D|------------------------------------------------------------------------
A|-5-3---3-5-3---5---3-1---1-3-1---3---5-3---3-5-3---5---3-1---1-3-1---3--
E|-----5-------5---------3-------3---------5-------5---------3-------3----


ACORDEÓN.
e|--------------------------------------------------------------------------
B|--------------------------------------------------------------------------
G|--------------------------------------------------------------------------
D|--------3--------3----------2--------2----------3---------2-3-2-----------
A|-5-5-5-5--5-5-5-5---3-3-3-3---3-3-3-3----5-5-5-5---3-3-3-3-----5-3-5---3-5
E|--------------------------------------------------------------------------


Se repite toda la canción.

AÐio§, ha§ta la p®ó×ima. !!!
Suggest correction
Give kudos to tab author, rate the tab!
1 2 3 4 5
comments
print report bad tab
guest
You may want to rate the tab now too:
select rating
Wanna post a correction for this tab? Suggest correction