Oops, an error
Loading. Please wait.

Mira Oye Tab

version 3
version 3

Whole song

229 views 3 this week
no commentswrite comment
1 2 3 4 5
3 more votes to show rating
add to favorites
launch autoscroll
font size
0
reset
how to read this tab
guitar tuner
×
Best way to learn
"Mira Oye"
Autoscroll
slow
fast
+/-
esc
set tempo
stop
Intro:

E------------------3--(oye)-----------------2
A-5-3-0---0-3-5-3-0--------5-3-0---0-3-5-3-0-
D--------------------------------------------
G--------------------------------------------
B--------------------------------------------
e--------------------------------------------


esto se repite creo y muchisimas veces.
      Dm                   C
E-----5------5-----------3-------3-----------
A-5-3--3-5-3---5-----3-1---1-3-1---3---------
D--------------------------------------------
G--------------------------------------------
B--------------------------------------------
e--------------------------------------------


   Dm  Dm    C    Dm         Dm
E--------------------------------------------
A--5----5 ---3-----5----------5--------------
D--------------------------------------------
G--------------------------------------------
B--------------------------------------------
e--------------------------------------------


El Final...

  Dm  Dm   C   Dm   C   Dm   C     Dm     Dm    D
E------------------------------------------------
A--5---5---3----5---3----5----3-----5-----5-----5
D------------------------------------------------
G------------------------------------------------
B------------------------------------------------
e------------------------------------------------


Epa!!!!!


Atte: el temerario   el que no la caga!!!
Suggest correction
Give kudos to tab author, rate the tab!
1 2 3 4 5
comments
print report bad tab
guest
You may want to rate the tab now too:
select rating
Wanna post a correction for this tab? Suggest correction