Oops, an error
Loading. Please wait.

Mira Que Linda Es Lupe Tab

254 views 6 this week
no commentswrite comment
1 2 3 4 5
3 more votes to show rating
add to favorites
launch autoscroll
font size
0
reset
how to read this tab
guitar tuner
×
Best way to learn
"Mira Que Linda Es Lupe"
Autoscroll
slow
fast
+/-
esc
set tempo
stop
ESTA TRANS SE LO DEDIKO A  MI PRINCESA   'ANDREA'

__
  \
   6|--7------------------------------------
 ) 5|----6-9---7------9-------7-------------
   4|------------6-9----8-11----6-9---------
   3|---------------------------------------
 ) 2|---------------------------------------
   1|---------------------------------------
__/

__
  \
   6|--7------------------------------------
 ) 5|----6-9---7------9-------7-------------
   4|------------6-9----8-11----6-9---------
   3|---------------------------------------
 ) 2|---------------------------------------
   1|---------------------------------------
__/

__
  \
   6|--7-7---7-----------9-7-7--------------
 ) 5|----------6-9-9-9-6--------------------
   4|---------------------------------------
   3|---------------------------------------
 ) 2|---------------------------------------
   1|---------------------------------------
__/

__
  \
   6|--7-7---7-----------9-7-7--------------
 ) 5|----------6-9-9-9-6--------------------
   4|---------------------------------------
   3|---------------------------------------
 ) 2|---------------------------------------
   1|---------------------------------------
__/

TAMBIEN SALUDOS A LA FAKU DE POLITICAS DE LA U.A.N.L.

DUDAS KOMENTARIOS A MI MAIL GILBERTO74@
Suggest correction
Give kudos to tab author, rate the tab!
1 2 3 4 5
comments
print report bad tab
guest
You may want to rate the tab now too:
select rating
Wanna post a correction for this tab? Suggest correction