Oops, an error
Loading. Please wait.

El Sordo Bass

19 views 1 this week
no commentswrite comment
1 2 3 4 5
3 more votes to show rating
add to favorites
launch autoscroll
font size
0
reset
guitar tuner
×
Best way to learn
"El Sordo"
Autoscroll
slow
fast
+/-
esc
set tempo
stop
bueno... es facil

esta es la base, y se repite todo el tiempo
g|----------------------------------------------------|
d|----------------------------------------------------|
a|-3-3--2-3-3-----------------------------------------|
e|------------0-1-1--0-1-1--2-3-3--2-3-3--0-1-1-0-1-3-|


este es el unico 'cambio'
g|------------------------------|
a|-----------2------------------|
d|--3---5-5----5--3--------2--3-|
e|-------------------1--3-------|
Suggest correction
Give kudos to tab author, rate the tab!
1 2 3 4 5
comments
print report bad tab
guest
You may want to rate the tab now too:
select rating
Wanna post a correction for this tab? Suggest correction