Oops, an error
Loading. Please wait.

Always On My Mind solo tab

version 1
version 1

Solo

Whole song

17,425 views 3 this week
3 commentsread comments
1 2 3 4 5
x 5
add to favorites
×
Save as Personal and add changes to this tab that will be seen only by you. Learn more ›
×
You can save this tab as Personal to edit and correct it or add notes. All changes will be seen only by you. Learn more »
launch autoscroll
font size
0
reset
how to read this tab
guitar tuner
edit
Autoscroll
slow
fast
+/-
esc
set tempo
stop
Author
-------------------------------------------------------------------------------
                             ALWAYS ON MY MIND SOLO - Tiki Taane
-------------------------------------------------------------------------------
Tabbed by: Dobo6
Email: Random_paulio@hotmail.com

Tuning: Eadgbe

e|---------------------------------------------------------------------------|
B|------10--10--10--9--7--------------------9--9--9--8--7--------------------|
G|---11-----------------------------------9----------------------------------|
D|-11-----------------------------------9------------------------------------|
A|---------------------------------------------------------------------------|
E|---------------------------------------------------------------------------|

e|---------------------------------------------------------------------------|
B|---------------------------------------------------------------------------|
G|--7--9--10--12--10--9--7--5--7--6------------------------------------------|
D|---------------------------------------------------------------------------|
A|---------------------------------------------------------------------------|
E|---------------------------------------------------------------------------|

e|---------------------------------------------------------------------------|
B|------10--10--10--9--7--------------------9--9--9--8--7--10----------------|
G|---11-----------------------------------9----------------------------------|
D|-11-----------------------------------9------------------------------------|
A|---------------------------------------------------------------------------|
E|---------------------------------------------------------------------------|

e|---------------------------------------------------------------------------|
B|---7--9--10--12--10--9--7--9--5--7-----------------------------------------|
G|---------------------------------------------------------------------------|
D|---------------------------------------------------------------------------|
A|---------------------------------------------------------------------------|
E|---------------------------------------------------------------------------|



| /  slide up
| \  slide down
| h  hammer-on
| p  pull-off
| ~  vibrato
| +  harmonic
| x  Mute note
===============================================================================
Suggest correction
Creating personal tab
Creating personal tab
You can edit any tab online and save it as your Personal.

You can edit, replace or remove any tab part or add personal notes – all changes will be seen only by you.

Personal tabs can be accessed anytime from any device, even offline.
Learn more »
comments
print report bad tab
3 comments total.
0 reply
--blair8065-- 20 Jun 11, 2008 11:45 PM

solo is in a scale..
jt to point that out.

not too sure wich scale. but i know its definetly a scale

0 reply
dj84 15 Jul 31, 2008 10:42 PM

good tab.
tiki taane is the man

0 reply
cstafford 12 Jul 23, 2015 05:17 PM

Clearly wrong. half of the notes are wrong. This is very poor quality. I had to rewrite it and will submit it soon.

guest
You may want to rate the tab now too:
select rating
Wanna post a correction for this tab? Suggest correction