Oops, an error
Loading. Please wait.

Always On My Mind chords

version 3
version 3

Whole song

1,870 views 15 this week
1 commentread comment
1 2 3 4 5
x 7
add to favorites
×
Save as Personal and add changes to this tab that will be seen only by you. Learn more ›
×
You can save this tab as Personal to edit and correct it or add notes. All changes will be seen only by you. Learn more »
launch autoscroll
font size
0
reset
transpose
0
reset
simplify chords
display chords
guitar tuner
edit
Autoscroll
slow
fast
+/-
esc
set tempo
stop
Strumming
There is no strumming pattern for this song yet. and get +5 IQ
Always On My mind
Tiki Taane

Thought I would submit this easier version for peeps who can't do barre chords yet!

CAPO 2

STRUM PATTERN
P  D     D u
1  2  3  4 &
 
VERSE      Em  /  D  /  Am /  C / D

CHORUS     Am /   C  / G /  F
Riff:

 ~~
--3-2---0---------|
----------3-0-----|
------------------|
------------------|
------------------|
------------------|


Intro:
Em              D
Oooooohh (RIFF) Ooooohh

Verse:
     Em D Am       C       D       Em D                           Am   C D
Yeah      You're always on my mind    Don't ya know that you're always
Em            D           Am                       C            D
I remember when .. when I first met you I knew just what to do
Em                 D                  Am                              C               D
I had to get to know .. to get to know   you right, you're my darkness you're my light
Em                      D                 Am                  C               D
You're always on my mind, I've been waiting so long,for you I wrote this song girl
Em                          D                    Am                       C             D
you don't know what you've got, until your world has gone this is why our love is strong



Chorus:
Am                        C
Girl you've got me singing with some melody
G                        F
You're always on my mind,  this is what you do to me
Am                        C
Girl you've got me singing with some harmony
G                       F
Forever you're my Queen and baby girl I'm your king

Solo:

Em             D            Am      C      D
 
-3----3--3--2--0----2----2--2--0----------------0-----------------------|
----------------------------------3----0--1--3-------3--1--0-------1--0-|
----------------------------------------------------------------2-------|
------------------------------------------------------------------------|
------------------------------------------------------------------------|
------------------------------------------------------------------------|
Em             D            Am      C      D
 
--3----3--3--2--0----2----2--2--0----3----0--2--3--5----3--2--0----2---0-|
-----------------------------------3---------------------------------3---|
-------------------------------------------------------------------------|
-------------------------------------------------------------------------|
-------------------------------------------------------------------------|
-------------------------------------------------------------------------|


Verse:
Em              D         Am                          C             D
I am not afraid, Afraid to   say the words even if my brothers heard
Em                      D                   Am                     C      D
Because of what you mean ..of what you mean to me ..you have given everything
Em                      D                   Am                      C           D
You have changed my life ..more than you'll ever know this is why I have to show girl
Em                      D               Am                   C            D
That you were everything, and everything   to me baby girl I hope you'll say


(CHORUS)

Em       D               Am      C              D
you're always on my mind   girl, don't you know that your always....
Em       D               Am      C              D
you're always on my mind... girl,               yeah
Em       D               Am      C              D
you're always on my mind   girl,don't you know that you're always
Em       D               Am      C      D       Em7
you're always on my mind girl..                 yeah...

            
            
Suggest correction
Creating personal tab
Creating personal tab
You can edit any tab online and save it as your Personal.

You can edit, replace or remove any tab part or add personal notes – all changes will be seen only by you.

Personal tabs can be accessed anytime from any device, even offline.
Learn more »
comments
print report bad tab
1 comment total.
0 reply
veetwinn 24 Apr 23, 2016 02:11 PM

Good effort.
To me sounds better when you leave the finger off the A string when playing C chord. NZ

guest
You may want to rate the tab now too:
select rating
Wanna post a correction for this tab? Suggest correction