Oops, an error
Loading. Please wait.

Always On My Mind chords

version 4
version 4

Whole song

907 views 9 this week
1 commentread comment
1 2 3 4 5
3 more votes to show rating
add to favorites
×
Save as Personal and add changes to this tab that will be seen only by you. Learn more ›
×
You can save this tab as Personal to edit and correct it or add notes. All changes will be seen only by you. Learn more »
launch autoscroll
font size
0
reset
transpose
0
reset
display chords
guitar tuner
edit
Autoscroll
slow
fast
+/-
esc
set tempo
stop
Author
Difficulty
Strumming
There is no strumming pattern for this song yet. and get +5 IQ
[Intro]  

        F#m                        E
|-9--9--9-------------------7-7-7~-------------|
|-10-10-10--10-9------------9-9-9~-------------|
|-11-11-11-------11-9-------9-9-9~-------------|
|-11-11-11------------11~---9-9-9~-------------|
|-9--9--9-------------------7-7-7~-------------|
|-9--9--9-------------------7-7-7~-------------|

[Rhythm]

F#m - E - Bm - D - E

[Intro melody under rhythm]

|-----------------------------------------------------------------------------|
|-----------------------------------------------------------------------------|
|-----------------------------------------------------------------------------|
|--------11-11-------------9-9-9----------------------------------------------|
|--9-9-9-------9-9---7-7-7-------7-7--------9-9---------------12-12-12--------|
|-------------------------------------7-7-7-----7-7--10-10-10----------12-12--|

F#m             E       Bm
        Yeah
         D       E       F#m
You're always on my mind girl
E                         Bm    D       E
Don't you know that you always

[Verse]

F#m             E
I remember when
        Bm
When I first met you
            D           E
I knew just what to do
F#m                     E
I had to get to know
                Bm
To get to know your right
                    D              E
Through the darkness you're my light

F#m                     E
You're always on my mind
                Bm
I've been waiting so long
           D              E
For you I wrote this song girl 
F#m                             E
You don't know what you've got
                 Bm
Until your world has gone
                D               E
This is why our love is strong


[Chorus]

Bm                         D
Girl you've got me singing with some melody
A
You're always on my mind
G
This is what you do to me
Bm                          D
Girl you've got me singing with some harmony
A                           G
Forever you're my queen and baby girl I'm your king

[Interlude - solo]

F#m - E - Bm - D - E

|-----------------------------------------------------------------|
|-------10-10-10-9--------9-9-9-7---------------------------------|
|-----11----------11-----9--------9---------9-11-9----------------|
|---11------------------9-------------11-12--------12-11-9-12-11--|
|--9-------------------7------------------------------------------|
|-----------------------------------------------------------------|

|--------------------------------------------------7--------------|
|-------10-10-10-9--------9-9-9-7---10~~/---7-9-10---10-9-7-9---7-|
|-----11----------11-----9--------9---------------------------9---|
|---11------------------9-----------------------------------------|
|--9-------------------7------------------------------------------|
|-----------------------------------------------------------------|

[Verse]

F#m             E
I am not afraid
              Bm
Afraid to say the words
           D              E
Even if my brothers heard
F#m                      E
Because of what you mean
                     Bm
And what you mean to me
                D       E
You have given everything
F#m                     E
You have changed my life
                Bm
More than you'll ever know
              D         E
This is why I have to show girl
F#m                      E
That you were everything
              Bm
And everything to me
            D           E
Baby girl I hope you see

[Chorus]

Bm                         D
Girl you've got me singing with some melody
A
You're always on my mind
G
This is what you do to me
Bm                          D
Girl you've got me singing with some harmony
A                           G                           F#m
Forever you're my queen and baby girl I'm your king

           E             Bm
You're always on my mind girl
     D              E             F#m
Well don't you know that you're always
        E                Bm     D       E
You're always on my mind girl

F#m
Yeah
Yo

           E             Bm
You're always on my mind girl
     D              E             F#m
Well don't you know that you're always
        E                Bm     D       E
You're always on my mind girl           Yeah

[F#m chord tremolo then downward sweep while palm muted then slide chord down]

            
            
Suggest correction
Creating personal tab
Creating personal tab
You can edit any tab online and save it as your Personal.

You can edit, replace or remove any tab part or add personal notes – all changes will be seen only by you.

Personal tabs can be accessed anytime from any device, even offline.
Learn more »
Give kudos to tab author, rate the tab!
1 2 3 4 5
comments
print report bad tab
1 comment total.
0 reply
benw51411 62 Jun 14, 2017 04:41 AM

fyi it's important to have the strum pattern as it makes it much easier to play. (just a suggestion as I find it frustrating to learn a new song with no strum pattern).

guest
You may want to rate the tab now too:
select rating
Wanna post a correction for this tab? Suggest correction