Oops, an error
Loading. Please wait.

Petite Feet bass

version 1
version 1

Whole song

Interactive

2,478 views 1 this week
1 commentread comment
1 2 3 4 5
2 more votes to show rating
add to favorites
×
Save as Personal and add changes to this tab that will be seen only by you. Learn more ›
×
You can save this tab as Personal to edit and correct it or add notes. All changes will be seen only by you. Learn more »
launch autoscroll
font size
0
reset
guitar tuner
edit
Autoscroll
slow
fast
+/-
esc
set tempo
stop
Author
Difficulty
-------------------------------------------------------------------------------
			     Petite Feet - Tim and Eric
-------------------------------------------------------------------------------

Tabbed By : Monstertrucks
e-mail: sros115@aol.com

Tuning:

Main Riff:

G|----------------5p3--------------------------------------------------------|
D|-----------3----------5----3h5---------------------------------------------|
A|-----3h5-------------------------------------------------------------------|
E|---------------------------------------------------------------------------|

Chord Change:

G|--------------5--------------3---------------------------------------------|
D|-----------5-------------3-------------------------------------------------|
A|-------3-------------1-------------1----3----1----3------------------------|
E|---------------------------------------------------------------------------|


Its pretty simple, it goes

Main riff x 8 (4 before the words, four after)
Change x 1
Main x 2
Change x 1
Main x 2
etc... until you run out funny walking sounds. Enjoy!
Suggest correction
Creating personal tab
Creating personal tab
You can edit any tab online and save it as your Personal.

You can edit, replace or remove any tab part or add personal notes – all changes will be seen only by you.

Personal tabs can be accessed anytime from any device, even offline.
Learn more »
Give kudos to tab author, rate the tab!
1 2 3 4 5
comments
print report bad tab
1 comment total.
0 reply
Thomas2360 31 Aug 10, 2011 11:24 AM

I was kinda hoping for that cool solo he does, but this seems pretty good :)

guest
You may want to rate the tab now too:
select rating
Wanna post a correction for this tab? Suggest correction