Oops, an error
Loading. Please wait.

Sallys Song Tab

version 1
version 1

Whole song

Interactive

68,054 views 147 this week
6 commentsread comments
1 2 3 4 5
x 33
add to favorites
launch autoscroll
font size
0
reset
how to read this tab
guitar tuner
Autoscroll
slow
fast
+/-
esc
set tempo
stop
Help us to improve Ultimate-Guitar.com Take our survey!
×
Author
-------------------------------------------------------------------------------
                             Sally's Song 
-------------------------------------------------------------------------------
Johnathan Chau
Tabbed by:TBSFan2758
Email:jchau@mybluelight.com

Tuning:Standard EADGBe 

e|--0---3-----5------7----0---3---0----1----|
B|------------------------------------------|
G|------------------------------------------|
D|------------------------------------------|
A|------------------------------------------|
E|------------------------------------------|

e|--1----5----7----8--5--2------0-----------|
B|---------------------------4--------------|
G|------------------------------------------|
D|------------------------------------------|
A|------------------------------------------|
E|------------------------------------------|

e|-7----7-----8---10--3----5---7--5---------|
B|------------------------------------------|
G|------------------------------------------|
D|------------------------------------------|
A|------------------------------------------|
E|------------------------------------------|

e|--5----7---8-------8---5--2------0--------|
B|------------------------------4-----------|
G|------------------------------------------|
D|------------------------------------------|
A|------------------------------------------|
E|------------------------------------------|

e|-7----7----8--10---3---5---7---5----------|
B|------------------------------------------|
G|------------------------------------------|
D|------------------------------------------|
A|------------------------------------------|
E|------------------------------------------|

e|-5----7--8---8--7---2--2---5----5---3-----|
B|------------------------------------------|
G|------------------------------------------|
D|------------------------------------------|
A|------------------------------------------|
E|------------------------------------------|

e|-8----5----2----0---0-------0----2---3--0-|
B|-------------------------4----------------|
G|------------------------------------------|
D|------------------------------------------|
A|------------------------------------------|
E|------------------------------------------|

e|-0--------0---2---3---0-------------------|
B|----4-------------------------------------|
G|------------------------------------------|
D|------------------------------------------|
A|------------------------------------------|
E|------------------------------------------|

e|--0---3-----5------7----0---3---0----1----|
B|------------------------------------------|
G|------------------------------------------|
D|------------------------------------------|
A|------------------------------------------|
E|------------------------------------------|

e|--1----5----7----8--5----2------0---------|
B|----------------------------4-------------|
G|------------------------------------------|
D|------------------------------------------|
A|------------------------------------------|
E|------------------------------------------|

e|-7----7-----8---10--3----5---7--5---------|
B|------------------------------------------|
G|------------------------------------------|
D|------------------------------------------|
A|------------------------------------------|
E|------------------------------------------|

e|-5---7---8---8---5--2-------0-------------|
B|-----------------------4------------------|
G|------------------------------------------|
D|------------------------------------------|
A|------------------------------------------|
E|------------------------------------------|

e|-7--7--8--10--3--5---7----5---------------|
B|------------------------------------------|
G|------------------------------------------|
D|------------------------------------------|
A|------------------------------------------|
E|------------------------------------------|

e|-5----7--8---8-7--2--2--5--5---3----------|
B|------------------------------------------|
G|------------------------------------------|
D|------------------------------------------|
A|------------------------------------------|
E|------------------------------------------|

e|-8-5---2----0----0------0--2---3--0-------|
B|----------------------4-------------------|
G|------------------------------------------|
D|------------------------------------------|
A|------------------------------------------|
E|------------------------------------------|

e|0-----0---2---3---0-----------------------|
B|----4-------------------------------------|
G|------------------------------------------|
D|------------------------------------------|
A|------------------------------------------|
E|------------------------------------------|
Suggest correction
comments
print report bad tab
6 comments total. Showing first comments.
+2 reply
Spikez_ 10 Aug 29, 2005 12:00 AM

I just have one correction that I picked up on:
During "line" 6 where it goes

|e|-5----7--8---8--7---2--2---5----5---3-----|
|B|------------------------------------------|
|G|------------------------------------------|
|D|------------------------------------------|
|A|------------------------------------------|
|E|------------------------------------------|
and does he no-tice my feel-ings for him?

it should actually be a 3 instead of 2 the second time. By this, I mean

|e|-5----7--8---8--7---2--3---5----5---3-----|
|B|------------------------------------------|
|G|------------------------------------------|
|D|------------------------------------------|
|A|------------------------------------------|
|E|------------------------------------------|
and does he no-tice me feel-ings for him?

This happens again in "line" 14
(and will we ev-er end up to-geth-er?)
Other than that, it sounds great & thanks for tabbing it out. I've just written all the lyrics on my printout so I can follow it a bit better, perhaps that would work better for other people too. Rock on \m/

+2 reply
Spikez_ 10 Aug 29, 2005 12:00 AM

oh and please tab out some more Nightmare songs, this is the only one I can find!

+3 reply
Saaski_100 10 May 17, 2006 09:17 PM

-ahem- I'd like to point out that Danny Elfman writes these songs, not Tim Burton.

And there is no 's' on the end of mister Burton's last name.

guest
You may want to rate the tab now too:
select rating
Wanna post a correction for this tab? Suggest correction