Oops, an error
Loading. Please wait.

Sweet Transvestite Tab

8,113 views 21 this week
no commentswrite comment
1 2 3 4 5
please rate
add to favorites
launch autoscroll
font size
0
reset
how to read this tab
guitar tuner
Autoscroll
slow
fast
+/-
esc
set tempo
stop
Help us to improve Ultimate-Guitar.com Take our survey!
×
Author
Difficulty
intermediate
-------------------------------------------------------------------------------
              SWEET TRANSVESTITE - The Rocky Horror Picture Show
-------------------------------------------------------------------------------
Tabbed by: ironmanben
Email: bentrooper@gmail.com

Tuning: e B G D A E

My favorite song from one of my favorite movies.  Enjoy. 


guitar 1 - rhythm
guitar 2 - lead


intro:
e|---------------|
B|---------------|
G|---------------|
D|-9-------------|
A|-7-------------|
E|-0-------------|
-|               |
e|-0-------------|
B|-0-------------|
G|-1-------------|
D|-2-------------|
A|-2-------------|
E|---------------|



verse 1:
e|-----------------------------------------------------------------|
B|-----------------------------------------------------------------|
G|-8/9-------------------------------------------------------------|
D|-8/9---------------------------------------------8/9-5-------7---|
A|-6/7-------------4/5-------------6/7-------------6/7-5---6/7-7---|
E|-----------------2/3-------------4/5-----------------3---4/5-5---|
-|                                                                 |
e|---0-------------2-3-------------4-5-----------------3-------5---|
B|---0-------------2-3-------------4-5-----------------3-------5---|
G|---1-------------3-4-------------5-6-----------------4-------6---|
D|-----------------------------------------------------------------|
A|-----------------------------------------------------------------|
E|-----------------------------------------------------------------|



verse 2:
e|-----------------------------------------------------------------|
B|-----------------------------------------------------------------|
G|-8/9---------------------------------------------8/9-------------|
D|-8/9---9--11-9-------------------6/7-------------8/9---9--11-9---|
A|-6/7---7---7-7---4/5---5---7-5---6/7---7---9-7---6/7---7---7-7---|
E|-----------------2/3---3---3-3---4/5---5---5-5-------------------|
-|                                                                 |
e|------10-10-----------12-12-------------15-15-----------10-10----|
B|7-9---10-10-7-9-11-12-13-13-10-12----14-15-15-12-14--9--10-10-7-9|
G|7-9---9---9-7-9-11-12-12-12-10-12-13-14-14-14-12-14--9--9--9--7-9|
D|7-9---9---9-7-9-11-12-12-12-10-12-13-14-14-14-12-14--9--9--9--7-9|
A|-----------------------------------------------------------------|
E|-----------------------------------------------------------------|


chorus:
e|---------------------------------|---------------------------------|
B|---------------------------------|---------------------------------|
G|---------------------------------|---------------------------------|
D|---------------------------------|---------------------------------|
A|-9-9-11--9-9-11--9-9-11--9-9-11--|-7-7-9---7-7-9-7---7-9---7-7-9---|
E|-7-7-7-7-7-7-7-7-7-7-7-7-7-7-7-0-|-5-5-5-5-5-5-5-5-5-5-5-5-5-5-5-0-|
-|                                 |                                 |
e|---------------------------------|---------------------------------|
B|---------------------------------|---------------------------------|
G|---------------------------------|---------------------------------|
D|---------------------------------|---------------------------------|
A|-9-9-11--9-9-11--9-9-11--9-9-11--|-7-7-9---7-7-9-7---7-9---7-7-9---|
E|-7-7-7-7-7-7-7-7-7-7-7-7-7-7-7-0-|-5-5-5-5-5-5-5-5-5-5-5-5-5-5-5-0-|

e|---------------------------------|
B|---------------------------------|
G|-9-9-9-9-----7-9-------------(9)-|
D|-9-9-9-9-----7-9-------------(9)-|
A|-7-7-7-7-----5-7-------------(7)-|
E|---------------------------------|
-|                                 |
e|---------------------------------|
B|-9-9-9-9-----7-9-------------(9)-|
G|-9-9-9-9-----7-9-------------(9)-|
D|-9-9-9-9-----7-9-------------(9)-|
A|---------------------------------|
E|---------------------------------|



verse 3:
e|-----------------------------------------------------------------|
B|-----------------------------------------------------------------|
G|-8/9---------------------------------------------8/9-------------|
D|-8/9---9--11-9-------------------6/7-------------8/9---9--11-9---|
A|-6/7---7---7-7---4/5---5---7-5---6/7---7---9-7---6/7---7---7-7---|
E|-----------------2/3---3---3-3---4/5---5---5-5-------------------|
-| x x   x   x x   x x   x   x x   x x   x   x x   x x   x   x x   |
e|-----------------------------------------------------------------|
B|-9-----------------------------------------------8-9-------------|
G|-9-----------------------------------------------8-9-------------|
D|-9-----------------------------------------------8-9-------------|
A|-----------------4/5-------------6/7-----------------------------|
E|-----------------2/3-------------4/5-----------------------------|


e|-----------------------------------------------------------------|
B|-----------------------------------------------------------------|
G|-8/9---------------------------------------------8/9-------------|
D|-8/9---9--11-9-------------------6/7-------------8/9---9--11-9---|
A|-6/7---7---7-7---4/5---5---7-5---6/7---7---9-7---6/7---7---7-7---|
E|-----------------2/3---3---3-3---4/5---5---5-5-------------------|
-| x x   x   x x   x x   x   x x   x x   x   x x   x x   x   x x   |
e|-----------------------------------------------------------------|
B|-9-----------------------------------------------8-9-9-9-7-7-9-9-|
G|-9-----------------------------------------------8-9-9-9-7-7-9-9-|
D|-9-----------------------------------------------8-9-9-9-7-7-9-9-|
A|-----------------4/5-------------6/7-----------------------------|
E|-----------------2/3-------------4/5-----------------------------|



verse 4:
e|-----------------------------------------------------------------|
B|-----------------------------------------------------------------|
G|-8/9-------------------------------------------------------------|
D|-8/9---------------------------------------------8/9-------------|
A|-6/7-------------4/5-------------6/7-------------6/7-------------|
E|-----------------2/3-------------4/5-----------------------------|
-|                                                                 |
e|-----------------2-3-------------4-5-----------------------------|
B|-8-9-------------2-3-------------4-5-------------8-9-------------|
G|-8-9-------------3-4-------------5-6-------------8-9-------------|
D|-8-9---------------------------------------------8-9-------------|
A|-----------------------------------------------------------------|
E|-----------------------------------------------------------------|





outro:
(there are breaks where he speaks in between the chords.)
e|---|---|---|---|---|---|---------------------|
B|---|---|---|---|---|---|---------------------|
G|---|---|---|---|---|---|---------------------|
D|-9-|-5-|-9-|-9-|-5-|-7-|-9-----------(9)-9---|
A|-7-|-5-|-7-|-7-|-5-|-7-|-7-----------(7)-7---|
E|-0-|-3-|-0-|-0-|-3-|-5-|-0-----------(0)-0---|
-|   |   |   |   |   |   |                     |
e|---|--/|---|---|---|---|---------------------|
B|-9-|12/|-9-|-9-|12/|14/|-9---9-9-9-9-9-9-9\--|
G|-9-|12/|-9-|-9-|12/|14/|-9---9-9-9-9-9-9-9\--|
D|-9-|12-|-9-|-9-|12/|14/|-9---9-9-9-9-9-9-9\--|
A|---|---|---|---|---|---|---------------------|
E|---|---|---|---|---|---|---------------------|



ORDER:
intro
verse 1 x2
verse 2 x2
chorus x1
verse 2 x2
verse 3
verse 2 x2
chorus x1
verse 4 x2
chorus x1 (palm-muted)
chorus x1



Lyrics:

How do you do, I
See you've met my
faithful handyman
He's just a little brought down, because
When you knocked
He thought you were the candyman


Don't get strung up
By the way I look
Don't judge a book by it's cover
I'm not much of a man
By the light of day
But by night I'm one hell of a lover


I'm a sweet transvestite 
From transexual 
Trasylvannia


Let me show you around, and maybe
Play you a sound
You look like you both, pretty groovy
Or if you want something visual
That's not to abyssimal
We could take in an old Steve Reeves movie

I'm glad we caught you at home
Could we use your phone?
We're both in a bit of a hurry (right)
We'll just say where we are, then go back to the car
We don't want to be any worry

Well you got caught with a flat, well
How bout' that?  Well, babies,
Don't you panic
By the light of the night
It'll all seem alright
I'll get you a satanic
mechanic

I'm just a sweet transvestite 
From transexual
Transylvannia

Why don't you
Stay for the night? (Night)
Only be a bite (Bite)
I could show you my favorite
Obsession
I've been makin' a man
With blond hair and a tan
And he's good for relievin' my
Tension

I'm just a sweet transvestite 
From transexual
Transylvannia
Hit it, hit it!
I'm just a sweet transvestite 
From transexual
Transylvannia

So
Come up to the lab
And see what's on the slab
I see you shiver with
Antici...
pation

But maybe the rain
Isn't really to blame
So I'll remove the cause
But not the symptom

 



************************************

| /   slide up
| \   slide down
| h   hammer-on
| p   pull-off
| ~   vibrato
| +   harmonic
| x   Mute note
| b   Bend
| pb  Pre-bend
| br  Bend release
| pbr Pre-bend release
| brb Bend release bend

************************************
Suggest correction
Give kudos to tab author, rate the tab!
1 2 3 4 5
comments
print report bad tab
guest
You may want to rate the tab now too:
select rating
Wanna post a correction for this tab? Suggest correction