Oops, an error
Loading. Please wait.

How Can We Hang On To A Dream Chords

version 2
version 2

Whole song

73 views 6 this week
no commentswrite comment
1 2 3 4 5
please rate
add to favorites
launch autoscroll
font size
0
reset
transpose
0
reset
simplify chords
display chords
guitar tuner
Tab Pro tools
  • play this tab
  • loop segment
  • change instrument
  • show fretboard
  • metronome
×
Best way to learn
"How Can We Hang On To A Dream"
Autoscroll
slow
fast
+/-
esc
set tempo
stop
Contributor
Difficulty
Capo
intermediate
3rd fret
Song: How can we hang on to a dream
Artist: Tim Hardin
Composer: Tim Hardin
Album: Tim Hardin 1
Tabbed by DJ
31th Jan 2016

Time signature: 3/4 (Waltz time)

CAPO: 3rd fret (Sounds in the key of Gm)

Chord names and fret positions are relative to the capo:
Em   = 022000   D   = xx0232    E4   = 022200
Am   = x02210   C   = x32010    D/F# = 2xxxxx
A4   = x02230   B   = x24442    D/G  = 3xxxxx
G    = xx5x03   D/A = x00232    D/A  = x0xxxx
G/F# = xx4x03   E   = 022100

*******************************************************

[Intro]
    Em          Am                  G           G/F#
e |----------|------------------|---3-3------|---3-----|
B |----0-----|---1----1-h3--1---|---0-0------|---0-----|
G |----0-----|---2----2-----2---|------------|---------|
D |----------|------------------|---5-4-h5---|---4-----|
A |----------|------------------|------------|---------|
E |--0----0--|------------------|------------|---------|


[Verse 1]
Em    D
    What can I say?
C               B          Am        D
   She's a - walking away   ...from what we've seen,
Em    D              C                B
     What can I do,  ...still loving you?
Am         B
     It's all a dream!


[Chorus]
C              D/A           Em
   How can we hang on to a dream?
C              D/A           E
   How can it really be the way it seems?


[Verse 2]
Em   D 
    What can I do? 
C                     B            Am        D
   She's a - saying we're through   ...with how it was,

    D/F# D/G D/A
e |---------------|
B |---------------|
G |---------------|
D |---------------|
A |-----------0---|
E |---2---3-------|

Em    D  
     What will I try?
C                 B       Am       B
   I still don't see why  ....she says what she does!


[Chorus]
C         D/A               Em
   How ...can we hang on ...to a dream?

e |------------------|
B |------------------|
G |------------------|
D |---------------2--|
A |----------0-h2----|
E |--0-h2-h3---------|

C              D/A           E
   How can it really be the way it seems?


[Bridge]
   Em          D           C            B
|  /  /  /  |  /  /  /  |  /  /  /   |  /  /  /  |

   Am          D          E   E4 E
|  /  /  /  |  /  /  /  | /  /__/  / |  /  /  /  |


[Verse 3]
Em    D
    What can I say?
C              B           Am        D
   She's a - walking away   ...from what we've seen,

    D/F# D/G D/A
e |---------------|
B |---------------|
G |---------------|
D |---------------|
A |-----------0---|
E |---2---3-------|

Em    D              C                B
     What can I do,  ...still loving you?
Am         B
     It's all a dream!


[Chorus]
C             D/A            Em
   How can we hang on to a dream?

e |------------------|
B |------------------|
G |------------------|
D |---------------2--|
A |----------0-h2----|
E |--0-h2-h3---------|

C              D/A          Em
   How can it really be the way it seems?

e |------------------|
B |------------------|
G |------------------|
D |---------------2--|
A |----------0-h2----|
E |--0-h2-h3---------|

C             D/A            E
   How can we hang on to a dream?
comments
We did not receive enough feedback on this tab! Please rate:
print report bad tab
1 2 3 4 5
I want to post or [tab]
guest
You may want to rate the tab now too:
select rating
Please do not post tabs as comments. Select "correction" instead!