Oops, an error
Loading. Please wait.

Bienaventurados Tab

16 views 1 this week
no commentswrite comment
1 2 3 4 5
3 more votes to show rating
add to favorites
launch autoscroll
font size
0
reset
how to read this tab
guitar tuner
×
Best way to learn
"Bienaventurados"
Autoscroll
slow
fast
+/-
esc
set tempo
stop
//Dsus2 Asus2 Bm G//

Estrofa
//(Dsus2 A5 G5)
bienaventurado son
(Dsus2 G5 A5)-corte
(Dsus2 A5 G5)
los que en tu casa estan
(Dsus2 G5 A5)-corte
(Dsus2 A5 G5)
siempre te alabara
(Dsus2 G5 A5)-corte
(Dsus2 A5 G5)
an puesto en ti sus fuerzas//

Coro- D5 A5 B5 G5

Requinto pequeno//
E-------------------------
B7-5-3-0-2-3-3~~----------
G-------------------------
D-------------------------
A-------------------------
E-------------------------

Requinto largo

E--------5-7-9/10-9-7---------------------------------------------
B3~-5-3~--------------10/12-12~---12-10-12-10-12/5-5-3-5b7-5------
G------------------------------------------------------------/9-7~
D-----------------------------------------------------------------
A-----------------------------------------------------------------
E-----------------------------------------------------------------


Este es un buen canto lo malo es que no es simple en unas partes, porque
requiere que escuches el canto   pero los tonos principales son D A Bm G

Dios los Bendiga!!!

miembro de
IGLESIA: EL SHADDAI
AUSTIN TX
Suggest correction
Give kudos to tab author, rate the tab!
1 2 3 4 5
comments
print report bad tab
guest
You may want to rate the tab now too:
select rating
Wanna post a correction for this tab? Suggest correction