Oops, an error
Loading. Please wait.

Entrad Por Sus Puertas Tab

38 views 1 this week
no commentswrite comment
1 2 3 4 5
3 more votes to show rating
add to favorites
launch autoscroll
font size
0
reset
how to read this tab
guitar tuner
×
Best way to learn
"Entrad Por Sus Puertas"
Autoscroll
slow
fast
+/-
esc
set tempo
stop
Intro
//A5-B5-C5-D5//(x2)

e-----------------------/12-10~--/17-15~--13-12-13-12--10-8----
B--12-10-8-10-12-8-/10~~------------------------------------/10-
G--------------------------------------------------------------
D--------------------------------------------------------------
A--------------------------------------------------------------
E--------------------------------------------------------------

e--/12-10~----------
B----------13-12-13~
G-------------------
D-------------------
A-------------------
E-------------------
A              F
entrad por sus puertas,
C           G
con accion de gracias
A                F
por todo lo que ha hecho
C            G
y todo lo que hara


(coro)
A    F  C    G
entrad, alabad,
A      F  C         G
al Señor, sea la loor

A                F
entrad por sus atrios
C      G
 con alabanza
A           F
y bendecir Su Nombre
C         G
por que bueno es

Pequeno Requinto
e-----------------------------
B-----------------------------
G-------7-5-------------------
D-----------7-5--------5-7/10~
A--------------3-5/7-5~-------
E-----------------------------


A                F
entrad por sus atrios
C      G
 con alabanza
A           F
y bendecir Su Nombre
C         G
por que bueno es


(coro)
A    F  C    G
//entrad, alabad,
A      F  C         G
al Señor, sea la loor//

Dios los Bendiga a todos!!!

e--/12-10~--/17-15~--13-12-13-12--10-8-----
B--------------------------------------/10~
G------------------------------------------
D------------------------------------------
A------------------------------------------
E------------------------------------------

e--/12-10~----------
B----------13-12-13~
G-------------------
D-------------------
A-------------------
E-------------------
este mismo requinto se repite ya cuando se acaba todo el canto!

dios los bendiga!  este canto tiene mucho arreglos pero les di los mas
esencial pa q la disfruten!


Miembro de
IGLESIA: EL Shaddai
austin tx
EMAIL:ludenv@
Suggest correction
Give kudos to tab author, rate the tab!
1 2 3 4 5
comments
print report bad tab
guest
You may want to rate the tab now too:
select rating
Wanna post a correction for this tab? Suggest correction