Oops, an error
Loading. Please wait.

Cowboy In Me Tab

version 1
version 1

Whole song

23,215 views 3 this week
no commentswrite comment
1 2 3 4 5
accurate
x 4
add to favorites
launch autoscroll
font size
0
reset
how to read this tab
guitar tuner
Autoscroll
slow
fast
+/-
esc
set tempo
stop
Help us to improve Ultimate-Guitar.com Take our survey!
×
Contributor
Difficulty
Rustle 90
novice
chords: Dsus2,D,A,G
-------------------
1. {fingerpick soft & slow}

I don't know why I act the way I do
e-------------0----------2p0------------0-----------2p0------|
B---------3-----3---3-------3--3------3---3---3---------3--3-|
G------2----------2----2------2-----2-------2-----2-------2--|
D---0----------------0-----------0--------------0------------|
A------------------------------------------------------------|
E------------------------------------------------------------|

like I ain't got a single thing to loose
e---------0---------------0----------------0----------2p0-------|
B-------3---3---3-------2---2---2-------3----3--3---------3---3-|
G-----2-------2-------2-------2------2---------2-----2------2---|
D---0------------------------------0---------------0------------|
A------------------0--------------------------------------------|
E---------------------------------------------------------------|

Sometimes I'm my own worst enemy
I guess that's just the cowboy in me

2. {normal [pick faster]}

I've got a live that most would love to have
e----------0------------------2-0-------------0------------2-0-------|
B--------3----3--------------------3--------3---3---2----------3---3-|
G------2---------2-------2-----------2----2-------2------2-------2---|
D----0---------------0------------------0--------------0-------------|
A--------------------------------------------------------------------|
E--------------------------------------------------------------------|

but sometimes I still wake up fightin' mad
e------------0----------------0--------------0----------2-0-----|
B--------3------3-----------2---2---2------3---3------------3---|
G------2----------2------2--------2------2-------2----2-------2-|
D---0----------------------------------0------------0-----------|
A---------------------0-----------------------------------------|
E---------------------------------------------------------------|

An' where this road I'm headin' down might lead
I guess that's just the cowboy in me


CHORUS {strum firmly}

The urge to  run,  the  restlesness
the heart of stone I  sometimes get
the thing I've done for foolish pride
e-------------2-----------------3---|
B-------------3-----------------0---|
G---2--2------2-----------------0---|
D---0--0------0---------0--0----0---|
A---x--x----------------2--2----2---|
E-----------------------3--3----3---|
    ^  ^      ^         ^  ^    ^

the me that's never satisfied
e-------------0------------0----|
B-------------2------------2----|
G---2---2-----2-----2--2---2----|
D---2---2-----2-----2--2---2----|
A---0---0-----0-----0--0---0----|
E---x---x-----------x--x--------|
    ^   ^     ^     ^  ^   ^

the face that's in the mirror  when I don't like what I see   |  v
e---------------2------------3---------2---------2-----------3---3--3-|
B---------------3------------0---------3---------3------0----0---0--0-|
G----2---2------2------------0---------2---------2------0----0---0--0-|
D----0---0------0------0--0--0---------0---------0------0----0------0-|
A----x---x-------------2--2--2--------------------------2----2------2-|
E----------------------3--3--3--------------------------3----3------3-|
     ^   ^      ^      ^  ^  ^         ^         ^      ^    ^      ^


I guess that's just the cowboy in me.    |v|
e---------------2-----------0-----2---2---2--2-|
B---3-----------3-------2---2-----3---3---3--3-|
G---2-----------2-------2---2-----2---2---2--2-|
D---0-----------0-------2---2-----0---0------0-|
A-----------------------0---0------------------|
E----------------------------------------------|
    ^           ^       ^   ^     ^   ^      ^

{shout} Hey!


INSTRUMENTAL: {strum firmly}

D-D D D  G G G  D-D D  A-A A  D D D
D-D D  G G G  D-D D A-A A  D  D D-D


CHORUS

The urge to  run,  the  restlesness
the heart of stone I  sometimes get
the thing I've done for foolish pride
e-------------2-----------------3---|
B-------------3-----------------0---|
G---2--2------2-----------------0---|
D---0--0------0---------0--0----0---|
A---x--x----------------2--2----2---|
E-----------------------3--3----3---|
    ^  ^      ^         ^  ^    ^

the me that's never satisfied
e-------------0------------0----|
B-------------2------------2----|
G---2---2-----2-----2--2---2----|
D---2---2-----2-----2--2---2----|
A---0---0-----0-----0--0---0----|
E---x---x-----------x--x--------|
    ^   ^     ^     ^  ^   ^

the face that's in the mirror  when I don't like what I see   |  v
e---------------2------------3---------2---------2-----------3---3--3-|
B---------------3------------0---------3---------3------0----0---0--0-|
G----2---2------2------------0---------2---------2------0----0---0--0-|
D----0---0------0------0--0--0---------0---------0------0----0------0-|
A----x---x-------------2--2--2--------------------------2----2------2-|
E----------------------3--3--3--------------------------3----3------3-|
     ^   ^      ^      ^  ^  ^         ^         ^      ^    ^      ^


I guess that's just the cowboy in me.
e---------------2-----------0-----------0---------2-0-----|
B---3-----------3-------2---2---------3---3-----------3---|
G---2-----------2-------2---2-------2-------2---2-------2-|
D---0-----------0-------2---2-----0-----------0-----------|
A-----------------------0---0-----------------------------|
E---------------------------------------------------------|
    ^           ^       ^   ^

3. {same tab as 2.)

Girl I know there's times you must have thought
there ain't a line you've drawn I haven't crossed
But you set your mind to see this love on through
I guess that's just the cowboy in you

BRIDGE {slowly, like verse 1}

We ride 'n' never worry 'bout the fall
e-----------0------------2p0-------------0-----------2p0------|
B--------3----3----3---------3--3------3---3---3---------3--3-|
G-----2----------2-----2-------2-----2-------2-----2-------2--|
D--0-----------------0-------------0--------------0-----------|
A-------------------------------------------------------------|
E-------------------------------------------------------------|

I guess that's just the cowboy in us all     |    v       v
e----------0-----------------0-----------------2----3--3-----3-----2----0-2-|
B--------3---3--3----------2---2---2--------10s3--3-0--0-----0-----3----2-3-|
G-----2-------2----------2-------2----2------9s2--2-0--0--0--0--22-2-22-2-2-|
D--0----------------------------------0--------0--0-0--0--0--0--00-0-22-2-0-|
A----------------------0----------------------------2--2--2--2--xx---00-0---|
E---------------------------------------------------3--3--3--3-------xx-----|
                                               ^    ^  ^     ^  ^^ ^ ^^ ^ ^

ENDING: {strum firmly}

D-D D D  G G G  D-D D  A-A A  D D D
D-D D  G G G  D-D D A-A A  D  D D-D
D-D D  D-D D  G G G  D-D  G  A-A A  D
(repeat 2x to fade)

Hope y'all enjoy this!

Rustle
comments
print report bad tab
I want to post or [tab]
guest
You may want to rate the tab now too:
select rating
Please do not post tabs as comments. Select "correction" instead!