Oops, an error
Loading. Please wait.

Dont Take The Girl Tab

version 2
version 2

Whole song

Interactive

20,875 views 3 this week
no commentswrite comment
1 2 3 4 5
excellent!
x 3
add to favorites
launch autoscroll
font size
0
reset
how to read this tab
guitar tuner
Autoscroll
slow
fast
+/-
esc
set tempo
stop
Help us to improve Ultimate-Guitar.com Take our survey!
×
     DON'T TAKE THE GIRL - FINGERSTYLE
                            As recorded by Tim McGraw

Tabed by FenderStrat21

Gtr I (E A D G B E) - 'Untitled'
Gtr II (E A D G B E) - 'Untitled'
Gtr III (E A D G B E) - 'Untitled'

                 Intro
         H=52
                  G
 2/2
  Gtrs I, II, III
  H    E Q.       Q   E E E Q.      E  E E E +E  E +Q        Q   E E E Q   E
|--------------||-----------------|------------------------|------------------|
|--------------||-----1-1-1-0-----|-1--1-1-1-(1)-0-(0)-----|-----1-1-1-0---3--|
|------------0-||-----------------|----------------------0-|---------------0--|
|--------0h2---||-----2-2-2----0--|-2--2-2-2-(2)-0--0--2---|-----2-2-2---0----|
|--------------||-----------------|------------------------|------------------|
|--------------||-3-----3-3-------|-3------3--3------------|-3-----3-3--------|
  H    E E E E    Q.    E Q    Q    Q.     E  Q     S  S E   Q.    E Q   Q


                        Verse
                         G
  +Q   E  E E E  E E     Q   E E E Q  E
|--------------------||-----------------|
|-(3)--------------0-||o-----1-1-1-0----|
|-(0)-----0h2----0---||----------0------|
|------0------0------||--------0------0-|
|--------------------||o----------------|
|--3-----------------||--3--------------|
   Q   Q.     Q.         Q.    E H


  E  E E E +E  Q.      E  E E E E Q   E
|--------------------|------------------|
|-1--1-1-1-(1)-0-----|------1-1-1-0---0-|
|-----------0--------|----------0-------|
|--------0--------0--|----0---0-----0---|
|--------------------|------------------|
|-3------------------|-3----------------|
  Q.     E  Q     Q    Q.     E Q   Q


  +H      E E E E   E  E E E E E E E   +E  Q   Q  Q.      E  E E E E Q   E
|-----------------|------------------|------------------|------------------|
|-(0)-------0-----|------1-1-1-0-0-1-|-(1)-0------------|----1-1-1-1-0---0-|
|---------0---2-0-|----------0-------|---------2--0-----|----------0-------|
|-------0-----0---|----0---0-----0---|-------0-------0--|--------0-----0---|
|-----------------|------------------|------------------|------------------|
|--3--------------|-3----------------|--3---------------|-3----------------|
   Q.   E Q   Q     Q.     E Q   Q      Q    H       Q    Q.     E Q   Q


                   Bm                  C                     Bm
  +H      H        Q   E E +E  Q   E   +E  Q   E +H          E  E E E E E E E
|----------------|-----------------0-|-(0)-----------------|------------------|
|-(0)------------|-----3-3-(3)-3-----|-----3---0-(0)-------|------0-3-3-0-3-1-|
|---------0------|-------0--2----0---|-------0-------0-----|----------2---0---|
|-------0--------|---0---------------|-----2------2------0-|----0---0---------|
|--------------0-|-2-----------------|--3--------------3---|-2----------------|
|--3---------3---|-------------------|---------------------|------------------|
   Q.   E Q  E E   E Q   E  Q    Q      E  E Q    E  E E E   Q.     E Q   Q


  C                   Am7
  +Q   E E E +E  Q    E  E E E +E  E E E
|-------------------|--------------------|
|-(1)----3-1-(1)----|----1-1-1-(1)-0-1-3-|
|------0------------|-----------0--------|
|-------------------|--------2-----------|
|--3-----3-3-----2--|-0--------------0---|
|-------------------|--------------------|
   Q.    E Q     Q    Q.     E  Q    Q


  Bm                    C
  +E  E E E +E  Q   E   E  E E E +E  Q   S S
|---------------------|----------------------|
|-(3)-0---------0-----|-0--0-0-0-(0)-0---1p0-|
|-------2-2-(2)-------|-----------0----------|
|------------0------0-|--------2-------------|
|--2--------------2---|-3--------------3-----|
|---------------------|----------------------|
   H         Q    Q     Q.     E  Q    Q


                  Chorus
  D                G
  Q  E E E Q  E    E  E E E E E +Q     E  E E E +E  Q   E   Q   E E E Q   E
|---------------||-------------------|--------------------|-----------------|
|------0--------||----1-1-1-1-0-(0)--|-1--1-1-1-(1)-0-----|-----1-1-1-0---0-|
|-2--0---2-2--0-||----0-0-0-0-0-(0)--|-0--0-0-0-(0)-0---0-|-----0-0-0-0---0-|
|-0-------------||----2-2-2-2-0--0---|-2--2-2-2-(2)-0-2---|-----2-2-2---0---|
|---------------||-------------------|--------------------|-----------------|
|---------------||-3------3-3--------|-3------3--3--------|-3-----3-3-------|
  W                Q.     E Q    Q     Q.     E  Q    E E   Q.    E Q   Q


  +H      E E E   E   E  E E E E E E E   +E  Q  E +E  E Q     Q   E E E Q   E
|-------------------|------------------|--------------------|-----------------|
|-(0)---------------|----1-1-1-1p0-0-1-|-(1)----------------|-----1-1-1-0---0-|
|-(0)-------0-----0-|----0-0-0-0---0-0-|-(0)-0--------------|-----0-0-0-0---0-|
|---------0---0-2---|----2-2-2-2---0-2-|-(2)-0--2-(2)-0---0-|-----2-2-2---0---|
|-------------------|------------------|----------------2---|-----------------|
|--3----3-3---------|-3------3-3-------|--3-----3--3--------|-3-----3-3-------|
   Q.   E Q   S S E   Q.     E Q   Q      Q.    E  Q    E E   Q.    E Q   Q


                        Am
  +E  E E E E E S S E   +E  E E E +Q     E  E
|---------------------|---------0-(0)---------|
|-(0)---0h3-0---------|-------1----------3s=1-|
|-(0)---------2-0h2-2-|-(2)-2---2-(2)----4s=2-|
|-----0---------------|-------2-------2-(2)---|
|---------------------|--0---------0----------|
|--3------------------|-----------------------|
   H        H            Q    Q    E  E +Q


                      C
                                          |-3-|
  +E  Q   Q   E E E   +Q.      E +Q   +E  S S S
|-------------------|---------------------------|
|-(1)-0-----------0-|-(0)------0-(0)--(0)-0-1-0-|
|-(2)-----2---------|----------0----------0-----|
|-------2-----2-0---|------0h2---------2--------|
|--0--------0---2---|--3----------3-------------|
|-------------------|---------------------------|
   Q    Q   Q   Q      Q   S S E  Q    E  E


                                                            1.,2.
  D              G
  Q  Q  Q  E E   +Q   E E E E +Q     E  E E E +E  E Q       Q   E E E Q   E
|--------------|-------------------|----------------------|-----------------|
|----1--0------|------1-1-1-0-(0)--|-1--1-1-1-(1)-0-0-----|-----1-1-1-0-----|
|-2--------2-0-|-(0)--0-0-0-0-(0)--|-0--0-0-0-(0)-0-----0-|-----0-0-0-0---0-|
|-0------------|------2-2-2----0---|-2--2-2-2-(2)-0-0h2---|-----2-2-2---0---|
|--------------|-------------------|----------------------|-----------------|
|--------------|--3-----3-3--------|-3------3--3----------|-3-----3-3-------|
  W               Q.    E Q    Q     Q.     E  Q    S S E   Q.    E Q   Q


                        Outro
                         3.
                         G
  +Q   E  E E E  E E     Q   E E E Q  E
|---------------------||----------------|
|------------------0-o||-----1-1-1-0----|
|-(0)-----0h2----0----||---------0------|
|------0------0-------||-------0------0-|
|--------------------o||----------------|
|--3------------------||-3--------------|
   Q   Q.     Q.         Q.    E H


  E  E E E +E  Q.      E  E E E E E Q     W
|--------------------|-----------------|-------*|
|-1--1-1-1-(1)-0-----|------1-1-1-0----|-^0----*|
|-----------0--------|----------0---2--|-^0----*|
|--------0--------0--|----0---0-----0--|-^0----*|
|--------------------|-----------------|-------*|
|-3------------------|-3---------------|-^3----*|
  Q.     E  Q     Q    Q.     E Q   Q


Suggest correction
Give kudos to tab author, rate the tab!
1 2 3 4 5
comments
print report bad tab
guest
You may want to rate the tab now too:
select rating
Please do not post tabs as comments. Select "correction" instead!