Oops, an error
Loading. Please wait.

Felt Good On My Lips tab

version 1
version 1

Whole song

184 views 3 this week
no commentswrite comment
1 2 3 4 5
3 more votes to show rating
add to favorites
×
Save as Personal and add changes to this tab that will be seen only by you. Learn more ›
×
You can save this tab as Personal to edit and correct it or add notes. All changes will be seen only by you. Learn more »
launch autoscroll
font size
0
reset
how to read this tab
guitar tuner
edit
Autoscroll
slow
fast
+/-
esc
set tempo
stop
Author
Difficulty
-------------------------------------------------------------------------------
                             Felt Good on my Lips - Tim McGraw
-------------------------------------------------------------------------------
Tabbed by: Asher_104
E-mail: aislingr104@gmail.com

This is a tab I've been working on for a while now let me know what you think

Tuning:Standard

e|----------------------------|
B|----------------------------|
G|----------------------------|
D|--5/8~8~8-h-10-p-5~5--------|
A|----------------------------|
E|----------------------------|

e|----------------------------|
B|----------------------------|
G|----------------------------|
D|--5/8~8~8-h-10-p-5~5--------|
A|----------------------------|
E|----------------------------|

e|----------------------------|
B|----------------------------|
G|----------------------------|
D|--5/8~8~8-h-10-p-5~5--------|
A|----------------------------|
E|----------------------------|
  She said her name is a hand me down name

e|-----------------------------|
B|-----------------------------|
G|-----------------------------|
D|--5/8~8~8-h-10-p-5~5---------|
A|-----------------------------|
E|-----------------------------|
  From the side of a family that long ago came

e|-----------------------------|
B|-----------------------------|
G|-----------------------------|
D|--5/8~8~8-h-10-p-5~5---------|
A|-----------------------------|
E|-----------------------------|
  Over here on a boat from somewhere in Spain

e|-----------------------------|
B|-----------------------------|
G|-----------------------------|
D|--5/8~8~8-h-10-p-5~5---------|
A|-----------------------------|
E|-----------------------------|
  Sounded to me just a little bit strange, I guess.

e|-----------------------------|
B|-----------------------------|
G|-----------------------------|
D|--5/8~8~8-h-10-p-5~5---------|
A|-----------------------------|
E|-----------------------------|
  But I have to admit, it felt good on my lips.

e|-----------------------------|
B|-----------------------------|
G|-----------------------------|
D|--5/8~8~8-h-10-p-5~5---------|
A|-----------------------------|
E|-----------------------------|

e|-----------------------------|
B|-----------------------------|
G|-----------------------------|
D|--5/8~8~8-h-10-p-5~5---------|
A|-----------------------------|
E|-----------------------------|

    G palm mute
          ^(upstroke)
             ^
e|--3--3--3--3--3--3----------|
B|--3--3--3--3--3--3----------|
G|----------------------------|
D|----------------------------|
A|--2--2--2--2--2--2----------|
E|--3--3--3--3--3--3----------|
 she paid the DJ to play her favorite song

  
  D           ^
e|--2--2--2--2--2--2----------|
B|--3--3--3--3--3--3----------|
G|--2--2--2--2--2--2----------|
D|----------------------------|
A|----------------------------|
E|----------------------------|
  A Spanish little number that was a rockin' on strong

  
  E           ^
e|----------------------------|
B|----------------------------|
G|--1--1--1--1--1--1----------|
D|--2--2--2--2--2--2----------|
A|--2--2--2--2--2--2----------|
E|----------------------------|
 She grabbed me by the sleeve and said lets go and get it on


   Em        ^
e|-----------------------------|
B|-----------------------------|
G|-----------------------------|
D|--2--2--2--2--2--2-----------|
A|--2--2--2--2--2--2-----------|
E|-----------------------------|
 By the second chorus I was singing right along with it

e|-----------------------------|
B|-----------------------------|
G|-----------------------------|
D|--5/8~8~8-h-10-p-5~5---------|
A|-----------------------------|
E|-----------------------------|
 I don't know what it meant, but it felt good on my lips.

e|-----------------------------|
B|-----------------------------|
G|-----------------------------|
D|--5/8~8~8-h-10-p-5~5---------|
A|-----------------------------|
E|-----------------------------|

  G
e|--3--------------------------|
B|--3--------------------------|
G|-----------------------------|
D|-----------------------------|
A|--2--------------------------|
E|--3--------------------------|
 Oh oh oh I wanna go crazy
  
D           
e|--2--2--2--2-----------------|
B|--3--3--3--3-----------------|
G|--2--2--2--2-----------------|
D|-----------------------------|
A|-----------------------------|
E|-----------------------------|
You can go crazy too

  G
e|--3--------------------------|
B|--3--------------------------|
G|-----------------------------|
D|-----------------------------|
A|--2--------------------------|
E|--3--------------------------|
 Oh oh oh I wanna go crazy
 
 D           
e|--2--2--2--2-----------------|
B|--3--3--3--3-----------------|
G|--2--2--2--2-----------------|
D|-----------------------------|
A|-----------------------------|
E|-----------------------------|
 I wanna go crazy with you

 D              ^
e|--2--2--2--2--2--2--2--2-----|
B|--3--3--3--3--3--3--3--3-----|
G|--2--2--2--2--2--2--2--2-----|
D|-----------------------------|
A|-----------------------------|
E|-----------------------------|
 Everybody sayin' whoa how sweet it is

D               ^
e|--2--2--2--2--2--2--2--2-----|
B|--3--3--3--3--3--3--3--3-----|
G|--2--2--2--2--2--2--2--2-----|
D|-----------------------------|
A|-----------------------------|
E|-----------------------------|
 Whoa yeah it felt good on my lips

e|-----------------------------|
B|-----------------------------|
G|-----------------------------|
D|--5/8~8~8-h-10-p-5~5---------|
A|-----------------------------|
E|-----------------------------|

e|-----------------------------|
B|-----------------------------|
G|-----------------------------|
D|--5/8~8~8-h-10-p-5~5---------|
A|-----------------------------|
E|-----------------------------|
 She ordered us a drink

e|-----------------------------|
B|-----------------------------|
G|-----------------------------|
D|--5/8~8~8-h-10-p-5~5---------|
A|-----------------------------|
E|-----------------------------|
 It was a purple kind of pink

e|-----------------------------|
B|-----------------------------|
G|-----------------------------|
D|--5/8~8~8-h-10-p-5~5---------|
A|-----------------------------|
E|-----------------------------|
 She said it's got a shot of a little bit of everything

e|-----------------------------|
B|-----------------------------|
G|-----------------------------|
D|--5/8~8~8-h-10-p-5~5---------|
A|-----------------------------|
E|-----------------------------|
 Little yellow umbrella for a fella like me

e|-----------------------------|
B|-----------------------------|
G|-----------------------------|
D|--5/8~8~8-h-10-p-5~5---------|
A|-----------------------------|
E|-----------------------------|
 It was just a bit mellow for me to be seen with

e|-----------------------------|
B|-----------------------------|
G|-----------------------------|
D|--5/8~8~8-h-10-p-5~5---------|
A|-----------------------------|
E|-----------------------------|
 But I took a sip

e|-----------------------------|
B|-----------------------------|
G|-----------------------------|
D|--5/8~8~8-h-10-p-5~5---------|
A|-----------------------------|
E|-----------------------------|
 Yeah it felt good on my lips

  G
e|--3--------------------------|
B|--3--------------------------|
G|-----------------------------|
D|-----------------------------|
A|--2--------------------------|
E|--3--------------------------|
 Oh oh oh I wanna go crazy
  
D          
e|--2--2--2--2-----------------|
B|--3--3--3--3-----------------|
G|--2--2--2--2-----------------|
D|-----------------------------|
A|-----------------------------|
E|-----------------------------|
You can go crazy too

  G
e|--3--------------------------|
B|--3--------------------------|
G|-----------------------------|
D|-----------------------------|
A|--2--------------------------|
E|--3--------------------------|
 Oh oh oh I wanna go crazy
 
 D           
e|--2--2--2--2-----------------|
B|--3--3--3--3-----------------|
G|--2--2--2--2-----------------|
D|-----------------------------|
A|-----------------------------|
E|-----------------------------|
 I wanna go crazy with you

 D              ^
e|--2--2--2--2--2--2--2--2-----|
B|--3--3--3--3--3--3--3--3-----|
G|--2--2--2--2--2--2--2--2-----|
D|-----------------------------|
A|-----------------------------|
E|-----------------------------|
 Everybody sayin' whoa how sweet it is

D               ^
e|--2--2--2--2--2--2--2--2-----|
B|--3--3--3--3--3--3--3--3-----|
G|--2--2--2--2--2--2--2--2-----|
D|-----------------------------|
A|-----------------------------|
E|-----------------------------|
 Whoa yeah it felt good on my lips

Solo (Varries slightly with different guitars)
e|--------------------------------------------|
B|--2h3-2h3/8--8~-10~--12~--17~--17~----------|
G|--------------------------------------------|
D|--------------------------------------------|
A|--------------------------------------------|
E|--------------------------------------------|

e|-----------------------------|
B|-----------------------------|
G|-----------------------------|
D|--5/8~8~8-h-10-p-5~5---------|
A|-----------------------------|
E|-----------------------------|


e|-----------------------------|
B|-----------------------------|
G|-----------------------------|
D|--5/8~8~8-h-10-p-5~5---------|
A|-----------------------------|
E|-----------------------------|
When the lights came on and they hollered last call

e|-----------------------------|
B|-----------------------------|
G|-----------------------------|
D|--5/8~8~8-h-10-p-5~5---------|
A|-----------------------------|
E|-----------------------------|
I was busy getting lost in her cherry lip gloss

e|-----------------------------|
B|-----------------------------|
G|-----------------------------|
D|--5/8~8~8-h-10-p-5~5---------|
A|-----------------------------|
E|-----------------------------|
In a little corner booth how do I know talk

e|-----------------------------|
B|-----------------------------|
G|-----------------------------|
D|--5/8~8~8-h-10-p-5~5---------|
A|-----------------------------|
E|-----------------------------|
She leaned in close and gave me one long and wet

e|-----------------------------|
B|-----------------------------|
G|-----------------------------|
D|--5/8~8~8-h-10-p-5~5---------|
A|-----------------------------|
E|-----------------------------|
A goodnight goodbye kiss


e|-----------------------------|
B|-----------------------------|
G|-----------------------------|
D|--5/8~8~8-h-10-p-5~5---------|
A|-----------------------------|
E|-----------------------------|
And it felt good on my lips

 D              ^
e|--2--2--2--2--2--2--2--2-----|
B|--3--3--3--3--3--3--3--3-----|
G|--2--2--2--2--2--2--2--2-----|
D|-----------------------------|
A|-----------------------------|
E|-----------------------------|
  whoa how sweet it is

D               ^
e|--2--2--2--2--2--2--2--2-----|
B|--3--3--3--3--3--3--3--3-----|
G|--2--2--2--2--2--2--2--2-----|
D|-----------------------------|
A|-----------------------------|
E|-----------------------------|
 Whoa yeah it felt good on my lips

 D              ^
e|--2--2--2--2--2--2--2--2-----|
B|--3--3--3--3--3--3--3--3-----|
G|--2--2--2--2--2--2--2--2-----|
D|-----------------------------|
A|-----------------------------|
E|-----------------------------|
  whoa how sweet it is

D               ^
e|--2--2--2--2--2--2--2--2-----|
B|--3--3--3--3--3--3--3--3-----|
G|--2--2--2--2--2--2--2--2-----|
D|-----------------------------|
A|-----------------------------|
E|-----------------------------|
 Whoa yeah it felt good on my lips




************************************

| /   slide up
| \   slide down
| h   hammer-on
| p   pull-off
| ~   vibrato
| +   harmonic
| x   Mute note
| b   Bend
| pb  Pre-bend
| br  Bend release
| pbr Pre-bend release
| brb Bend release bend

************************************
Suggest correction
Creating personal tab
Creating personal tab
You can edit any tab online and save it as your Personal.

You can edit, replace or remove any tab part or add personal notes – all changes will be seen only by you.

Personal tabs can be accessed anytime from any device, even offline.
Learn more »
Give kudos to tab author, rate the tab!
1 2 3 4 5
comments
print report bad tab
guest
You may want to rate the tab now too:
select rating
Wanna post a correction for this tab? Suggest correction