Oops, an error
Loading. Please wait.

Good Girls bass

244 views 1 this week
no commentswrite comment
1 2 3 4 5
3 more votes to show rating
add to favorites
×
Save as Personal and add changes to this tab that will be seen only by you. Learn more ›
×
You can save this tab as Personal to edit and correct it or add notes. All changes will be seen only by you. Learn more »
launch autoscroll
font size
0
reset
guitar tuner
edit
Autoscroll
slow
fast
+/-
esc
set tempo
stop
Author
Difficulty
-----------------------------------------------------------------------------
      Good Girls - Tim McGraw
 -----------------------------------------------------------------------------

 Tabbed by: Country Bass
 E-mail: aaron.white8@education.nsw.gov.au

 Great song by Tim McGraw, 4 chords throughout the whole song
 Very Complicated Outro solo
 This song took me a long time to figure out, timing is a little iffy but the notes 
should all be close to perfect


 Tuning: Standard

 Verse 1/Chorus 1

 Bass enters when Tim starts singing

 G|----------------------|
 D|----------------------|
 A|--0----6---------4----| x7
 E|------------3---------|

 Verse

 G|-------------------|
 D|-------------------|
 A|--0-0-6-6-----4-4--| x4
 E|----------3-3------|

 Chorus 2

 G|----------------------------------------------------------------------|
 D|----------------------------------------------------------------------|
 A|--0---3-5-6-6-----------5-3-4-4-5\--0---3-5-6-6----------5-3-4-4-5--0-|
 E|--------------6---4--3--------------------------6-5-4-3-----------3---|

 G|-----------------------------------|
 D|-----------------------------------|
 A|--0---3-5-6-6-----------5-3-4-4-5\-|
 E|--------------6---4--3-------------|

 G|----------------------------------|
 D|----------------------------------|
 A|----0---3-5-6-6-----4-5-6-4-6-7-9-|
 E|----------------6-5---------------|

 Verse 3

 G|-------------------------------------|
 D|-------------------------------------|
 A|--0---6--------4--4/6-0--56------34--|
 E|----------43----------------43-------|

 G|-------------------------------------------|
 D|-------------------------------------------|
 A|--0---6--------4--4/6-0--56---------5-6-4--|
 E|----------43----------------0-2-5-3--------|

 Chorus 3

 G|-------------------------------------------------------------------|
 D|-------------------------------------------------------------------|
 A|--0---3-5-6-6-----------5-3-4-4-5\--0---3-5-6-6-----4-5-6-4-6-7-9--|
 E|--------------6---4--3--------------------------6-5----------------|

 G|----------------------------------------------------------------------|
 D|----------------------------------------------------------------------|
 A|--0---3-5-6-6-----------5-3-4-4-5\--0---3-5-6-6----------5-3-4-4-5--0-|
 E|--------------6---4--3--------------------------6-5-4-3-----------3---|

 G|----------------------|
 D|----------------------|
 A|--0----6---------4----| x2
 E|------------3---------|

 Outro

 G|----------------------------------------------------------------------|
 D|----------------------------------------------------------------------|
 A|--0--3-5-6-6--------5-3-4-4-5---0--3-5-6-6-----44-55-66-44-66-77-99-8-|
 E|-------------6-4-3------------3------------6-4------------------------|

 G|---------------------------------------|
 D|----7-5--------------------------------|
 A|--4-----7-5-4-4-7-5-44-5-6-4-66-77-9-8-|
 E|---------------------------------------|

 G|-----------------------------------------------|
 D|-----------------------------------------------|
 A|-------7-5-------------------------------------|
 E|--4-4------7-5-4-4-5-4-44-55-66-44-66-77-99-8--|

 G|-------------------------------------------------------------------------|
 D|---------------6-6--5------------5-7-6-3---------5-6-5-3-----------------|
 A|--0-0--3-5-6-5--------6-0-0--3-5----------0-0--3----------5-3------------|
 E|--------------------------------------------------------------5-3-4-2-0--|

 G|-------------------------------------------------|
 D|-------------------------------------------------|
 A|--0-0--3-5-6-5-6-6-------44-55-66-44-66-77-99-88-|
 E|-------------------6-4-5-------------------------|

 G|---------------------------------------|
 D|-------7-5-----------------------------|
 A|--4-4------7-5-4-4--6-4-----5-3--------|
 E|------------------------6-4-----4-2-0--|


 Playing Order


 Verse 1/Chorus 1
 Verse
 Chorus 2
 Verse 3
 Chorus 3
 Outro


 Have Fun


 | /  slide up
 | \  slide down
 | h  hammer-on
 | p  pull-off
 | ~  vibrato
 | +  harmonic
 | x  Mute note
 =============================================================================

            
            
Suggest correction
Creating personal tab
Creating personal tab
You can edit any tab online and save it as your Personal.

You can edit, replace or remove any tab part or add personal notes – all changes will be seen only by you.

Personal tabs can be accessed anytime from any device, even offline.
Learn more »
Give kudos to tab author, rate the tab!
1 2 3 4 5
comments
print report bad tab
guest
You may want to rate the tab now too:
select rating
Wanna post a correction for this tab? Suggest correction