Oops, an error
Loading. Please wait.

Highway Dont Care bass

version 1
version 1

Whole song

Interactive

1,181 views 1 this week
1 commentread comment
1 2 3 4 5
x 3
add to favorites
×
Save as Personal and add changes to this tab that will be seen only by you. Learn more ›
×
You can save this tab as Personal to edit and correct it or add notes. All changes will be seen only by you. Learn more »
launch autoscroll
font size
0
reset
guitar tuner
edit
Autoscroll
slow
fast
+/-
esc
set tempo
stop
-----------------------------------------------------------------------------
                     SONG NAME - Tim McGraw Feat. Taylor Swift & Keith Urban
-----------------------------------------------------------------------------

Tabbed by: Country Bass
E-mail: aaron.white8@education.nsw.gov.au

Highway Don't Care is the third single from Tim McGraw's new album Two Lanes Of Freedom
Great song, Have fun

Tuning: Standard

Intro

G|------------------------------------------|
D|------------------------------------------|
A|--5----5-5--2----2-2------------0----0-0--| x2
E|----------------------3----3-3------------|

Verse

G|------------------------------------------|
D|------------------------------------------|
A|--5----5-5--2----2-2------------0----0-0--| x2
E|----------------------3----3-3------------|

Pre-Chorus

G|-------------------------------------|
D|-------------------------------------|
A|--5-(x16)-2-(x16)---------0-(x16)-/--|
E|------------------3-(x16)------------|

Chorus

G|--------------------------------------------------|    |-----|
D|--------------------------------------------------|    |-----|
A|--5--5--5-5-5-2--2--2-2-2-------------0--0--0-0-0-| x2 |-5---|
E|--------------------------3--3--3-3-3-------------|    |-----|

Chorus 2

G|--------------------------------------------------|    
D|--------------------------------------------------|    
A|--5--5--5-5-5-2--2--2-2-2-------------0--0--0-0-0-| x2 
E|--------------------------3--3--3-3-3-------------|    

Chorus 3

G|--------------------------------------------------|    
D|--------------------------------------------------|    
A|--5-----------2-----------------------0-----------|  
E|--------------------------3-----------------------|   

End on D

G|---|
D|---|
A|-5-|
E|---|


Playing Order

into
verse
pre-chorus
chorus
verse
pre-chorus
chorus 2
intro
chorus 3
intro x4
End on D


Hope this is of help


| /  slide up
| \  slide down
| h  hammer-on
| p  pull-off
| ~  vibrato
| +  harmonic
| x  Mute note
=============================================================================

            
            
Suggest correction
Creating personal tab
Creating personal tab
You can edit any tab online and save it as your Personal.

You can edit, replace or remove any tab part or add personal notes – all changes will be seen only by you.

Personal tabs can be accessed anytime from any device, even offline.
Learn more »
Give kudos to tab author, rate the tab!
1 2 3 4 5
comments
print report bad tab
1 comment total.
0 reply
Guy LaSieve 10 Apr 18, 2014 08:12 PM

should be 2nd fret not 1st

guest
You may want to rate the tab now too:
select rating
Wanna post a correction for this tab? Suggest correction