Oops, an error
Loading. Please wait.

Its Your Love Tab

version 1
version 1

Whole song

Interactive

28,048 views 3 this week
no commentswrite comment
1 2 3 4 5
excellent!
x 9
add to favorites
launch autoscroll
font size
0
reset
how to read this tab
guitar tuner
Tab Pro tools
  • play this tab
  • loop segment
  • change instrument
  • show fretboard
  • metronome
×
Best way to learn
"Its Your Love"
Autoscroll
slow
fast
+/-
esc
set tempo
stop
Contributor
Difficulty
novice
The other tabs didn't have the intro in there. The intro really makes the song.

Intro:

    G                  D                 EM                C
E--------3------3-3-3-------2------2-2-2--------------0------------0-|
B----------3----3-3-3---------3----3-3-3------0-----0---0--------1-1-|
G------0-----0--0-0-0-----2-----2--2-2-2----0---0--------------0---0-|
D---------------0-0-0---0----------0-0-0----------2----------2-----2-|
A---------------2-2-2---------------------2----------------3-------3-|
E----3----------3-3-3------------------------------------------------|

Verse 1:
  G
E-----------------3-------------------3-3-3-|
B------------------------3------------3-3-3-|
G----------0--------------------0-----0-0-0-|
D-------------------------------------0-0-0-|
A-------------------------------------2-2-2-|
E---3---------------------------------3-3-3-|
    Dancin in the dark,

  D
E-----------------2-------------------2-2-2-|
B------------------------3------------3-3-3-|
G----------2--------------------2-----2-2-2-|
D---0---------------------------------0-0-0-|
A-------------------------------------------|
E-------------------------------------------|
    Middle of the night,

  EM
E-------------------------------------0-0-0-|
B-----------------0-------------------0—0-0-|
G----------0-------------0------------0-0-0-|
D-------------------------------2-----2-2-2-|
A---2---------------------------------2-2-2-|
E-------------------------------------0-0-0-|
    Takin’ your    heart

  C
E--------------------------------------------|
B------------------------1-------------------|
G-----------------0-------------0----------0-|
D----------2---------------------------2-----|
A---3----------------------------------------|
E--------------------------------------------|
And holdin it     tight

    G
E-----------------3-------------------3-3-3-|
B------------------------3------------3-3-3-|
G----------0--------------------0-----0-0-0-|
D-------------------------------------0-0-0-|
A-------------------------------------2-2-2-|
E---3---------------------------------3-3-3-|
  Emotional touch,
    D
E-----------------2-------------------2-2-2-|
B------------------------3------------3-3-3-|
G----------2--------------------2-----2-2-2-|
D---0---------------------------------0-0-0-|
A-------------------------------------------|
E-------------------------------------------|
    touchin my skin

  EM
E---------------------------------------0---|
B-----------------0-------------------0—--0-|
G----------0-------------0------------------|
D-------------------------------2-----------|
A---2---------------------------------------|
E-------------------------------------------|
And asking you to do, what you've been doing

    C
E-----------------------0--------------------|
B-----------------1-------------1----------1-|
G----------0--------------------------0------|
D--------------------------------------------|
A---3----------------------------------------|
E--------------------------------------------|
    all over again                       Oh,

           D           G
E----------2-----------3---------3-------3--|
B----------3-----------3---------3-------3--|
G----------2-----------0---------0-------0--|
D----------0-----------0---------0-------0--|
A----------------------2---------2-------2--|
E----------------------3---------3-------3--|
      it's a beautiful thing don't think I can

  D           EM
E-2-------2-2--0----0-0-----------------------------|
B-3-------3-3--0----0-0-----------------------------|
G-2-------2-2--0----0-0-----------------------------|
D-0-------0-0--2----2-2-----------------------------|
A--------------2----2-2-----------------------------|
E--------------0----0-0-----------------------------|
  keep it all in

    G
E---1-----1-------3-------------------3-3-3-|
B---0-----0--------------3------------3-3-3-|
G---0-----0---------------------0-----0-0-0-|
D---0-----0---------------------------0-0-0-|
A---2-----2---------------------------2-2-2-|
E---3-----3---------------------------3-3-3-|
    Gotta let you know, what it is that


  D
E-2----2---2--2-----------------------------|
B-3----3---3--3-----------------------------|
G-2----2---2--2-----------------------------|
D-0----0---0--0-----------------------------|
A-------------------------------------------|
E-------------------------------------------|
  Wont let me go


*********Chorus*******
          G                            D
It's your love, it just does something to me
                    Em                      C
Sends a shock right through me, I can't get enough
           G                           D
And if you wonder, about the spell I'm under
    C    D    G
Oh, It's your love
***********

G                  D
Better than I was, more than I am

    Em                       C
And all of this happended by taking your hand

    G                      D
And who I am now, is who I wanted to be
    Em
And now that we're together
                            C
I'm stronger than ever, I'm happy and free
           D          G                       D           Em
Oh, it's a beautiful thing, don't think I can keep it all in
           C                                          D
And if you ask me why I've changed, all I gotta do is say your sweet name
**Repeat Chorus**
***Instrumental***   G D Em C

           D            G                    D            Em
Oh, It's a beautiful thing don't think I can keep it all in
       C                                      D
I just gotta let you know, what it is that'll won't let me go
**Repeat Chorus **
C    D    C
It's your love (repeat 2x's) end with a G
comments
print report bad tab
I want to post or [tab]
guest
You may want to rate the tab now too:
select rating
Please do not post tabs as comments. Select "correction" instead!