Oops, an error
Loading. Please wait.

Over And Over Again tab

28,056 views 18 this week
2 commentsread comments
1 2 3 4 5
x 11
add to favorites
×
Save as Personal and add changes to this tab that will be seen only by you. Learn more ›
×
You can save this tab as Personal to edit and correct it or add notes. All changes will be seen only by you. Learn more »
launch autoscroll
font size
0
reset
how to read this tab
guitar tuner
edit
Autoscroll
slow
fast
+/-
esc
set tempo
stop
Tim Mcgraw ft. Nelly
Over and Over Again

Tabbed by: FenderStrat21
Im pretty sure this is right. let me know if it isnt


             ----------------guitar1-----------------------

Intro/Verse/Chorus:
   G
e------------------------------------------------|
B------------------------------------------------|
G------------------------------------------------|
D--------4h5--5p4----------------4h5--5p4--------|
A------5-----------5----------5-----------5------|
E----3----------------------3--------------------|

   Em
e-----------------------------------------------|
B-----------------------------------------------|
G-----------------------------------------------|
D-------5p4---4---5----------5p4---4---5--------|
A----5------5---5---------5------5---5----------|
E--0--------------------0-----------------------|

Play throughout entire song


             ----------------guitar2--------------------------

Chorus:

cause its all in my head  i think about it over and over again
e--------------10------------------------------------------|
B-----------8-----10------------------------10p8--10p8--8--|
G----7-h-9-------------------------------------------------|
D----------------------------------------------------------|
A----------------------------------------------------------|
E----------------------------------------------------------|

and i cant keep picturing you with him, and it hurts so bad
e----------------------------------------------------------|
B------10b*-------------------------------10--10p8---------|
G----------------------------------------------------------|
D----------------------------------------------------------|
A----------------------------------------------------------|
E----------------------------------------------------------|
* bend 2 whole steps

1st Verse:


i cant wait to see you  wanna see if you still got that look in your eye


that one you had for me  before we said our good bye's
e----------------------------------------------------------|
B-----10b*-------------10---10p8---------------------------|
G----------------------------------------------------------|
D----------------------------------------------------------|
A----------------------------------------------------------|
E----------------------------------------------------------|

and its a shame that we gotta spend our time being mad about the same things


over and over again  (about the same things)  over and over again
e----------------------------------------------------------|
B----10p8--10p8--8--------------------------10p8-10p8---8--|
G----------------------------------------------------------|
D----------------------------------------------------------|
A----------------------------------------------------------|
E----------------------------------------------------------|


pre chorus:

  G                      D                Em

I think she's leavin. Oh, she's leavin. I dont know what

              C
else to do .I cant go on not lovin you


Chorus:


2nd Verse: same as 1st

pre chorus:

Chorus:


The chords for when tim sings after the verse and chorus are
the same as the pre chorus

            
            
Suggest correction
Creating personal tab
Creating personal tab
You can edit any tab online and save it as your Personal.

You can edit, replace or remove any tab part or add personal notes – all changes will be seen only by you.

Personal tabs can be accessed anytime from any device, even offline.
Learn more »
comments
print report bad tab
2 comments total.
0 reply
LightGesture 10 Jan 21, 2015 02:48 PM

e-----------------------------------------------|
B-----------------------------------------------|
G-----------------------------------------------|
D-------5p4---4---5----------5p4---4---5--------|
A----5------5---5---------5------5---5----------|
E--0--------------------0-----------------------|

Should be a harmonic

e-----------------------------------------------|
B-------------------8*-----------------------8*-----|
G-----------------------------------------------|
D-------5p4---4----------------5p4---4-----------|
A----5------5---5------------5------5---5----------|
E--0-----------------------0-----------------------|

guest
You may want to rate the tab now too:
select rating
Wanna post a correction for this tab? Suggest correction