Oops, an error
Loading. Please wait.

Still bass

112 views 1 this week
no commentswrite comment
1 2 3 4 5
3 more votes to show rating
add to favorites
×
Save as Personal and add changes to this tab that will be seen only by you. Learn more ›
×
You can save this tab as Personal to edit and correct it or add notes. All changes will be seen only by you. Learn more »
launch autoscroll
font size
0
reset
guitar tuner
edit
Autoscroll
slow
fast
+/-
esc
set tempo
stop
-----------------------------------------------------------------------------
                              Still - Tim McGraw
-----------------------------------------------------------------------------

Tabbed by: Country Bass
E-mail: aaron.white8@education.nsw.gov.au


Absolutely Amazing song by Tim McGraw of my favourite of his albums Southern Voice, Enjoy

Tuning: Standard

The bass enters at 0:20 I'm not 100% sure how Tim McGraw's bassist plays it but here's 
how I play it

Intro

G|-----13-11------------------|
D|-----------12-10------------|
A|-----------------11-9-------|
E|----------------------10-8--|

Verse 1

G|-----------------------------------------------------------------|
D|-----------------------------------------------------------------|
A|--3---3-3--3---3-3--6---6-6--6---6-6--------------------3---3-3--|
E|--------------------------------------1---1-1--1---1-1-----------|

Chorus

G|----------------------------------------------------------------------------|
D|----------------------------------------------------------------------------|
A|--1---1-1--3---3-3--------------------1---1-1--3---3-3-----------4---4-4--4-|
E|--------------------1---1-1--1---1-1--------------------1---1-1-------------|

Chorus 2

G|--------------------------------------------------------------------------|
D|--------------------------------------------------------------------------|
A|--1---1-1--3---3-3--------------------1---1-1--3---3-3--------------------|
E|--------------------1---1-1--1---1-1--------------------1---1-1--1---1-1--|

Instrumental Break

G|-------------------------------------------------------------|
D|-------------------------------------------------------------|
A|--3---3-3--3---3-3--6---6-6--6---6-6--------------------4----|
E|--------------------------------------1---1-1--1---1-1-------|

Bridge

G|-----------------------------|
D|-----------------------------|
A|--3--------6-----------------|
E|--------------------1--------|

G|-----------------------------------------------------------------|
D|-----------------------------------------------------------------|
A|--1-1-1-1-1-1-1-1---------------------------------------1-1-1-11-|
E|------------------3-3-3-3-3-3-3-3-1-1-1-1-1-1-1-1-3-3-3----------|

Outro

G|--------------------------------------------------------|
D|--------------------------------------------------------|
A|--3---3-3--3---3-3--6---6-6--6---6-6--------------------| x2
E|--------------------------------------1---1-1--1---1-1--|

Then play 3rd fret A (this is a C) until the song ends



Playing Order

Intro
Verse
Chorus
Verse
Chorus 2
Instrumental Break


| /  slide up
| \  slide down
| h  hammer-on
| p  pull-off
| ~  vibrato
| +  harmonic
| x  Mute note
=============================================================================

            
            
Suggest correction
Creating personal tab
Creating personal tab
You can edit any tab online and save it as your Personal.

You can edit, replace or remove any tab part or add personal notes – all changes will be seen only by you.

Personal tabs can be accessed anytime from any device, even offline.
Learn more »
Give kudos to tab author, rate the tab!
1 2 3 4 5
comments
print report bad tab
guest
You may want to rate the tab now too:
select rating
Wanna post a correction for this tab? Suggest correction