Oops, an error
Loading. Please wait.

So Fucking Rock bass

version 1
version 1

Whole song

Interactive

4,297 views 1 this week
3 commentsread comments
1 2 3 4 5
1 last vote to show rating
add to favorites
×
Save as Personal and add changes to this tab that will be seen only by you. Learn more ›
×
You can save this tab as Personal to edit and correct it or add notes. All changes will be seen only by you. Learn more »
launch autoscroll
font size
0
reset
guitar tuner
edit
Autoscroll
slow
fast
+/-
esc
set tempo
stop
-------------------------------------------------------------------------------
			     So Rock - Tim Minchin
-------------------------------------------------------------------------------

Tabbed By : Dark Jedi
e-mail: the-lost-twenty@hotmail.com
This is the whole song. I am 99% sure it is correct. Feel free to comment if you think 
is a discrepancy, and i will fix it if it is correct. Please rate this.
Tuning: DADG

G|--------------------------------|--------------------------------|
D|--------------------------------|------------0-------------------|
A|--------------------------------|--------3-----------------------|
D|0---0---------------------------|0---0---------------------------|
  1       2       3       4        1       2       3       4
G|--------------------------------|--------------------------------|
D|--------0-----------------------|101210--------------------------|
A|------------3-------------------|------------101210--------------|
D|0---0---------------------------|------------------------101210--|
  1       2       3       4        1       2       3       4
G|--------------------------------|--------------------------------|
D|--------0-------0-----------0---|--------3-------3-0---0-----3-0-|
A|------------------3-0-3-------3-|--------------------3-----------|
D|0---0---------------------------|3---3---------------------------|
  1       2       3       4        1       2       3       4
G|--------0-------0-----------0---|------------------------------------|
D|------------------3-0-3-------3-|--------8-----8-----------10-----10-|
A|--------------------------------|------------------------------------|
D|5---5---------------------------|8---8-------8---10---10--------10---|
  1       2       3       4        1       2       3         4

G|--------------------------------|--------------------------------|
D|--------0-----0-----0-------0---|--------3-0---3-----3-3-----3---|
A|----------3-0---------3-------3-|------------3-------------------|
D|0---0-------------------0-------|3---3-------------3-----3-------|
  1       2       3       4        1       2       3       4
G|--------0-----0-----0-0-----0-0-|--------------------------------|
D|----------3-0-------------------|--------8-8---8---10----10------|
A|--------------------------------|--------------------------------|
D|5---5-------------5-----5-------|8---8-------8---10--10----------|
  1       2       3       4        1       2       3       4
G|--------------------------------|--------------------------------|
D|--------0-----0-----0-------0---|--------3-0---3-----3-3-----3---|
A|----------3-0---------3-------3-|------------3-------------------|
D|0---0-------------------0-------|3---3-------------3-----3-------|
  1       2       3       4        1       2       3       4
G|--------0-----0-----0-0-----0-0-|--------------------------------|
D|----------3-0-------------------|--------8-8---8---10----10----10|
A|--------------------------------|--------------------------------|
D|5---5-------------5-----5-------|8---8-------8---10--10------10--|
  1       2       3       4        1       2       3       4
G|--------------------------------|--------------------------------|
D|--------0-------0-----------0---|--------3-------3-0---0-----3-0-|
A|------------------3-0-3-------3-|--------------------3-----------|
D|0---0---------------------------|3---3---------------------------|
  1       2       3       4        1       2       3       4
G|--------0-------0-----------0---|------------------------------------|
D|------------------3-0-3-------3-|--------8-----8-----------10-----10-|
A|--------------------------------|------------------------------------|
D|5---5---------------------------|8---8-------8---10---10--------10---|
  1       2       3       4        1       2       3         4
G|--------------------------------|--------------------------------|
D|--------0-----0-----0-------0---|--------3-0---3-----3-3-----3---|
A|----------3-0---------3-------3-|------------3-------------------|
D|0---0-------------------0-------|3---3-------------3-----3-------|
  1       2       3       4        1       2       3       4
G|--------0-----0-----0-0-----0-0-|--------------------------------|
D|----------3-0-------------------|--------8-8---8---10----10------|
A|--------------------------------|--------------------------------|
D|5---5-------------5-----5-------|8---8-------8---10--10----------|
  1       2       3       4        1       2       3       4
G|--------------------------------|--------------------------------|
D|--------0-------0-----------0---|--------3-------3-0---0-----3-0-|
A|------------------3-0-3-------3-|--------------------3-----------|
D|0---0---------------------------|3---3---------------------------|
  1       2       3       4        1       2       3       4
G|--------0-------0-----------0---|------------------------------------|
D|------------------3-0-3-------3-|--------8-----8-----------10-----10-|
A|--------------------------------|------------------------------------|
D|5---5---------------------------|8---8-------8---10---10--------10---|
  1       2       3       4        1       2       3         4
G|--------------------------------|--------------------------------|
D|--------0-----0-----0-------0---|--------3-0---3-----3-3-----3---|
A|----------3-0---------3-------3-|------------3-------------------|
D|0---0-------------------0-------|3---3-------------3-----3-------|
  1       2       3       4        1       2       3       4
G|--------0-----0-----0-0-----0-0-|--------------------------------|
D|----------3-0-------------------|--------8-8---8---10----10------|
A|--------------------------------|--------------------------------|
D|5---5-------------5-----5-------|8---8-------8---10--10----------|
  1       2       3       4        1       2       3       4
G|--------------------------------|--------------------------------|
D|--------0-------0-----------0---|--------3-------3-0---0-----3-0-|
A|------------------3-0-3-------3-|--------------------3-----------|
D|0---0---------------------------|3---3---------------------------|
  1       2       3       4        1       2       3       4
G|--------0-------0-----------0---|------------------------------------|
D|------------------3-0-3-------3-|--------8-----8----10-----10-----10-|
A|--------------------------------|------------------------------------|
D|5---5---------------------------|8---8-------8---10---10--------10---|
  1       2       3       4        1       2       3         4
G|--------------------------------|--------------------------------|
D|--------0-----0-----0-------0---|--------3-0---3-----3-3-----3---|
A|----------3-0---------3-------3-|------------3-------------------|
D|0---0-------------------0-------|3---3-------------3-----3-------|
  1       2       3       4        1       2       3       4
G|--------0-----0-----0-0-----0-0-|--------------------------------|
D|----------3-0-------------------|--------8-8---8---10----10------|
A|--------------------------------|--------------------------------|
D|5---5-------------5-----5-------|8---8-------8---10--10----------|
  1       2       3       4        1       2       3       4
G|--------------------------------|--------------------------------|
D|--------0-------0-----------0---|--------3-------3-0---0-----3-0-|
A|------------------3-0-3-------3-|--------------------3-----------|
D|0---0---------------------------|3---3---------------------------|
  1       2       3       4        1       2       3       4
G|--------0-------0-----------0---|------------------------------------|
D|------------------3-0-3-------3-|--------8-----8----10-----10-----10-|
A|--------------------------------|------------------------------------|
D|5---5---------------------------|8---8-------8---10---10--------10---|
  1       2       3       4        1       2       3         4
G|--------------------------------|--------------------------------|
D|--------0-----0-----0-------0---|--------3-0---3-----3-3-----3---|
A|----------3-0---------3-------3-|------------3-------------------|
D|0---0-------------------0-------|3---3-------------3-----3-------|
  1       2       3       4        1       2       3       4
G|--------0-----0-----0-0-----0-0-|--------------------------------|
D|----------3-0-------------------|--------8-8---8---10----10------|
A|--------------------------------|--------------------------------|
D|5---5-------------5-----5-------|8---8-------8---10--10----------|
  1       2       3       4        1       2       3       4
G|--------------------------------|--------------------------------|
D|--------0-------------------0---|--------3-------------------3-0-|
A|------------------------------3-|--------------------------------|
D|0---0---------------------------|3---3---------------------------|
  1       2       3       4        1       2       3       4
G|--------0-------------------0---|------------------------------------|
D|------------------------------3-|--------8-----8----10-----10-----10-|
A|--------------------------------|------------------------------------|
D|5---5---------------------------|8---8-------8---10---10--------10---|
  1       2       3       4        1       2       3         4
G|--------------------------------|--------------------------------|
D|--------0-----0-----0-------0---|--------3-0---3-----3-3-----3---|
A|----------3-0---------3-------3-|------------3-------------------|
D|0---0-------------------0-------|3---3-------------3-----3-------|
  1       2       3       4        1       2       3       4
G|--------0-----0-----0-0-----0-0-|--------------------------------|
D|----------3-0-------------------|--------8-8---8---10----10------|
A|--------------------------------|--------------------------------|
D|5---5-------------5-----5-------|8---8-------8---10--10----------|
  1       2       3       4        1       2       3       4
G|--------------------------------|--------------------------------|
D|--------------------------------|--------------------------------|
A|--------------------------------|--------------------------------|
D|0-3-5-6---0-3-5-6------7--------|--------------------------------|
  1       2       3       4        1       2       3       4

INTERLUDE

G|--------------------------------|--------------------------------|
D|--------------------------------|--------------------------------|
A|----0-------0-----0---0-----0---|----3-------3-----3---3-----3---|
D|0-------0-------0---0-----0-----|3-------3-------3---3---3-------|
  1       2        3       4        1       2       3       4
G|--------------------------------|------------------------------------|
D|--------------------------------|----8-------8------10--10------10---|
A|----5-------5-----5---5-----5---|------------------------------------|
D|5-------5-------5---5-----5-----|8-------8--------10--10---10--------|
  1       2       3       4        1        2       3         4
G|--------------------------------|--------------------------------|
D|--------------------------------|--------------------------------|
A|----0-------0-------0-------0---|----3-------3-------3-------3---|
D|0-------0-------0-------0-------|3-------3-------3-------3-------|
  1       2        3       4        1       2       3       4
G|--------------------------------|------------------------------------|
D|--------------------------------|----8-------8---------10-------10---|
A|----5-------5-------5-------5---|------------------------------------|
D|5-------5-------5-------5-------|8-------8--------10-------10--------|
  1       2       3       4        1        2       3         4


G|--------------------------------|--------------------------------|
D|--------------------------------|--------------------------------|
A|--------------------------------|--------------------------------|
D|0-3-5-6---0-3-5-6---7-----------|--------------------------------|
  1       2       3       4        1       2       3       4
G|--------------------------------|--------------------------------|
D|--------0-------0-----------0---|--------3-------3-0---0-----3-0-|
A|------------------3-0-3-------3-|--------------------3-----------|
D|0---0---------------------------|3---3---------------------------|
  1       2       3       4        1       2       3       4
G|--------0-------0-----------0---|------------------------------------|
D|------------------3-0-3-------3-|--------8-----8----10-----10-----10-|
A|--------------------------------|------------------------------------|
D|5---5---------------------------|8---8-------8---10---10--------10---|
  1       2       3       4        1       2       3         4


G|--------------------------------|--------------------------------|
D|--------------------------------|--------------------------------|
A|--------------------------------|0-------------------------------|
D|2-------------------------------|--------------------------------|
  1       2       3       4        1       2       3       4
G|--------------------------------|--------------------------------|
D|--------------------------------|--------------------------------|
A|--------------------------------|0-------------------------------|
D|5-------------------------------|--------------------------------|
  1       2       3       4        1       2       3       4

G|--------------------------------|--------------------------------|
D|--------------------------------|--------------------------------|
A|--------------------------------|0-------------------------------|
D|2-------------------------------|--------------------------------|
  1       2       3       4        1       2       3       4
G|--------------------------------|--------------------------------|
D|--------------------------------|--------------------------------|
A|--------------------------------|0-------------------------------|
D|5-------------------------------|--------------------------------|
  1       2       3       4        1       2       3       4
G|--------------------------------|--------------------------------|
D|--------------------------------|--------------------------------|
A|--------------------------------|0-------------------------------|
D|2-------------------------------|--------------------------------|
  1       2       3       4        1       2       3       4
G|--------------------------------|--------------------------------|
D|--------------------------------|--------------------------------|
A|--------------------------------|0-------------------------------|
D|5-------------------------------|--------------------------------|
  1       2       3       4        1       2       3       4
G|--------------------------------|--------------------------------|
D|--------------------------------|--------------------------------|
A|--------------------------------|--------------------------------|
D|0---0---------------------------|3---3---------------------------|
  1       2       3       4        1       2       3       4
G|--------------------------------|-----------------------------------|
D|--------------------------------|-----------------------------------|
A|--------------------------------|----8-----8---8----10--10-----10---|
D|5---5---------------------------|8-------8---8----10--10--10--------|
  1       2       3       4        1        2       3        4
G|--------------------------------|--------------------------------|
D|--------------------------------|--------------------------------|
A|--------------------------------|--------------------------------|
D|0---0---------------------------|3---3---------------------------|
  1       2       3       4        1       2       3       4
G|--------------------------------|-----------------------------------|
D|--------------------------------|-----------------------------------|
A|--------------------------------|----8-----8---8----10--10-----10---|
D|5---5---------------------------|8-------8---8----10--10--10--------|
  1       2       3       4        1        2       3        4
G|--------------------------------|--------------------------------|
D|--------0-------0-----------0---|--------3-------3-0---0-----3-0-|
A|------------------3-0-3-------3-|--------------------3-----------|
D|0---0---------------------------|3---3---------------------------|
  1       2       3       4        1       2       3       4
G|--------0-------0-----------0---|------------------------------------|
D|------------------3-0-3-------3-|--------8-----8----10-----10-----10-|
A|--------------------------------|------------------------------------|
D|5---5---------------------------|8---8-------8---10---10--------10---|
  1       2       3       4        1       2       3         4
G|--------------------------------|--------------------------------|
D|--------------------------------|--------------------------------|
A|--------------------------------|--------------------------------|
D|0-3-5-6---0-3-5-6---7-----------|0-3-5-6---0-3-5-6---7---10------|
  1       2       3       4        1       2       3       4
G|--------------------------------|--------------------------------|
D|--------------------------------|--------------------------------|
A|--------------------------------|--------------------------------|
D|0-3-5-6---0-3-5-6---7-----------|0-3-5-6---0-3-5-6---7---12------|
  1       2       3       4        1       2       3       4
G|--------------------------------|--------------------------------|
D|--------------------------------|--------------------------------|
A|----0-------0-------0-------0---|----3-------3-------3-------3---|
D|0-------0-------0-------0-------|3-------3-------3-------3-------|
  1       2        3       4        1       2       3       4
G|--------------------------------|------------------------------------|
D|--------------------------------|----8-------8---------10-------10---|
A|----5-------5-------5-------5---|------------------------------------|
D|5-------5-------5-------5-------|8-------8--------10-------10--------|
  1       2       3       4        1        2       3         4
G|--------------------------------|--------------------------------|
D|--------------------------------|--------------------------------|
A|--------------------------------|--------------------------------|
D|--7-101112107-5-5-7-0-7-5-3-0---|--------------------------------|
  1        2      3       4        1        2       3       4
G|--------------------------------|--------------------------------|
D|--------0-----0-----0-------0---|--------3-0---3-----3-3-----3---|
A|----------3-0---------3-------3-|------------3-------------------|
D|0---0-------------------0-------|3---3-------------3-----3-------|
  1       2       3       4        1       2       3       4
G|--------0-----0-----0-0-----0-0-|--------------------------------|
D|----------3-0-------------------|--------8-8---8---10----10------|
A|--------------------------------|--------------------------------|
D|5---5-------------5-----5-------|8---8-------8---10--10----------|
  1       2       3       4        1       2       3       4
G|--------------------------------|--------------------------------|
D|--------0-------0-----------0---|--------3-------3-0---0-----3-0-|
A|------------------3-0-3-------3-|--------------------3-----------|
D|0---0---------------------------|3---3---------------------------|
  1       2       3       4        1       2       3       4
G|--------0-------0-----------0---|------------------------------------|
D|------------------3-0-3-------3-|--------8-----8----10-----10-----10-|
A|--------------------------------|------------------------------------|
D|5---5---------------------------|8---8-------8---10---10--------10---|
  1       2       3       4        1       2       3         4
G|--------------------------------|--------------------------------|
D|--------0-----0-----0-------0---|--------3-0---3-----3-3-----3---|
A|----------3-0---------3-------3-|------------3-------------------|
D|0---0-------------------0-------|3---3-------------3-----3-------|
  1       2       3       4        1       2       3       4
G|--------0-----0-----0-0-----0-0-|--------------------------------|
D|----------3-0-------------------|--------8-8---8---10----10------|
A|--------------------------------|--------------------------------|
D|5---5-------------5-----5-------|8---8-------8---10--10----------|
  1       2       3       4        1       2       3       4
G|--------------------------------|
D|--------------------------------|
A|--------------------------------|
D|0-------------------------------|
  1       2       3       4

            
            
Suggest correction
Creating personal tab
Creating personal tab
You can edit any tab online and save it as your Personal.

You can edit, replace or remove any tab part or add personal notes – all changes will be seen only by you.

Personal tabs can be accessed anytime from any device, even offline.
Learn more »
Give kudos to tab author, rate the tab!
1 2 3 4 5
comments
print report bad tab
3 comments total.
0 reply
jimmy on bass 51 Dec 23, 2012 06:07 AM

Really enjoyed the tab and found it incredibly helpful - this is just a bit more concise and some of the fiddlier riffs are in there. Hope you enjoy!

|:---:| Shows to repeat between those two symbols.

G|--------------------------------|--------------------------------|
D|--------------------------------|--------------------------------|
A|--------------------------------|--------3---5-------------------|
D|0---0---------------------------|0---0---------------------------|
1 2 3 4 1 2 3 4
G|--------------------------------|--------------------------------|
D|--------------------------------|101210--------------------------|
A|--------5---3-------------------|------------101210--------------|
D|0---0---------------------------|------------------------101210--|
1 2 3 4 1 2 3 4
G|--------------------------------|--------------------------------|
D|--------------------------------|--------3-------3-----------3---|
A|--------5-------5-3-0-3-----5-3-|------------------5-3-5-------5-|
D|0---0---------------------------|3---3---------------------------|
1 2 3 4 1 2 3 4
G|--------------------------------|---------------------------------|
D|--------5-------5-3-0-3-----5-3-|--------8-----10--1010--10-----10|
A|--------------------------------|---------------------------------|
D|5---5---------------------------|8---8-------8--------10-----10---|
1 2 3 4 1 2 3 4
G| --------------------------------|--------------------------------|
D|∙ --------------------------------|--------3-----------3-------3---|
A|∙ --------5-3-0-3-----5-3-----5-3-|----------5-3-5-------5-------5-|
D| 0---0-------------0-----0-------|3---3-------------3-----3-------|
1 2 3 4 1 2 3 4
G|--------------------------------|--------------------------------|
D|--------5-3---3-----5-------5-3-|----------8---8---------10------ ∙|
A|------------5---------3---------|-------------------------------- ∙|
D|5---5-------------5-----5-------|8---8---8---8---10--10----------|
1 2 3 4 1 2 3 4
(Guitar Entry + 3x vocals)
G| --------------------------------|--------------------------------|
D|∙ --------------------------------|--------3-------3-----------3---|
A|∙ --------5-------5-3-0-3-----5-3-|------------------5-3-5-------5-|
D| 0---0---------------------------|3---3---------------------------|
1 2 3 4 1 2 3 4
G|--------------------------------|---------------------------------|
D|--------5-------5-3-0-3-----5-3-|--------8-----10--1010--10-----10|
A|--------------------------------|---------------------------------|
D|5---5---------------------------|8---8-------8--------10-----10---|
1 2 3 4 1 2 3 4
G|--------------------------------|--------------------------------|
D|--------------------------------|--------3-----------3-------3---|
A|--------5-3-0-3-----5-3-----5-3-|----------5-3-5-------5-------5-|
D|0---0-------------0-----0-------|3---3-------------3-----3-------|
1 2 3 4 1 2 3 4
G|--------------------------------|--------------------------------|
D|--------5-3---3-----5-------5-3-|----------8---8---------10------ ∙|
A|------------5---------3---------|-------------------------------- ∙|
D|5---5-------------5-----5-------|8---8---8---8---10--10----------|
1 2 3 4 1 2 3 4

“Fucking” “God-damn”
G|--------------------------------|--------------------------------|
D|--------------------------------|--------3-------------------3---|
A|--------5-------------------5-3-|------------------------------5-|
D|0---0---------------------------|3---3---------------------------|
1 2 3 4 1 2 3 4

“Mother****ing”
G|--------------------------------|---------------------------------|
D|--------5-------------------5-3-|--------8-----10--1010--10-----10|
A|--------------------------------|---------------------------------|
D|5---5---------------------------|8---8-------8--------10-----10---|
1 2 3 4 1 2 3 4
“I am so...”
G|--------------------------------|--------------------------------|
D|--------------------------------|--------3-----------3-------3---|
A|--------5-3-0-3-----5-3-----5-3-|----------5-3-5-------5-------5-|
D|0---0-------------------0-------|3---3-------------------3-------|
1 2 3 4 1 2 3 4
G|--------------------------------|--------------------------------|
D|--------5-3---3-----5-------5-3-|----------8---8---------10------|
A|------------5---------3---------|--------------------------------|
D|5---5-------------------5-------|8---8---8-

0 reply
jimmy on bass 51 Dec 23, 2012 06:09 AM

G|--------------------------------|--------------------------------|
D|--------------------------------|--------------------------------|
A|--------------------------------|--------3---5-------------------|
D|0---0---------------------------|0---0---------------------------|
1 2 3 4 1 2 3 4
G|--------------------------------|--------------------------------|
D|--------------------------------|101210--------------------------|
A|--------5---3-------------------|------------101210--------------|
D|0---0---------------------------|------------------------101210--|
1 2 3 4 1 2 3 4
G|--------------------------------|--------------------------------|
D|--------------------------------|--------3-------3-----------3---|
A|--------5-------5-3-0-3-----5-3-|------------------5-3-5-------5-|
D|0---0---------------------------|3---3---------------------------|
1 2 3 4 1 2 3 4
G|--------------------------------|---------------------------------|
D|--------5-------5-3-0-3-----5-3-|--------8-----10--1010--10-----10|
A|--------------------------------|---------------------------------|
D|5---5---------------------------|8---8-------8--------10-----10---|
1 2 3 4 1 2 3 4
G| --------------------------------|--------------------------------|
D|∙ --------------------------------|--------3-----------3-------3---|
A|∙ --------5-3-0-3-----5-3-----5-3-|----------5-3-5-------5-------5-|
D| 0---0-------------0-----0-------|3---3-------------3-----3-------|
1 2 3 4 1 2 3 4
G|--------------------------------|--------------------------------|
D|--------5-3---3-----5-------5-3-|----------8---8---------10------ ∙|
A|------------5---------3---------|-------------------------------- ∙|
D|5---5-------------5-----5-------|8---8---8---8---10--10----------|
1 2 3 4 1 2 3 4
(Guitar Entry + 3x vocals)
G| --------------------------------|--------------------------------|
D|∙ --------------------------------|--------3-------3-----------3---|
A|∙ --------5-------5-3-0-3-----5-3-|------------------5-3-5-------5-|
D| 0---0---------------------------|3---3---------------------------|
1 2 3 4 1 2 3 4
G|--------------------------------|---------------------------------|
D|--------5-------5-3-0-3-----5-3-|--------8-----10--1010--10-----10|
A|--------------------------------|---------------------------------|
D|5---5---------------------------|8---8-------8--------10-----10---|
1 2 3 4 1 2 3 4
G|--------------------------------|--------------------------------|
D|--------------------------------|--------3-----------3-------3---|
A|--------5-3-0-3-----5-3-----5-3-|----------5-3-5-------5-------5-|
D|0---0-------------0-----0-------|3---3-------------3-----3-------|
1 2 3 4 1 2 3 4
G|--------------------------------|--------------------------------|
D|--------5-3---3-----5-------5-3-|----------8---8---------10------ ∙|
A|------------5---------3---------|-------------------------------- ∙|
D|5---5-------------5-----5-------|8---8---8---8---10--10----------|
1 2 3 4 1 2 3 4

“Fucking” “God-damn”
G|--------------------------------|--------------------------------|
D|--------------------------------|--------3-------------------3---|
A|--------5-------------------5-3-|------------------------------5-|
D|0---0---------------------------|3---3---------------------------|
1 2 3 4 1 2 3 4

“Mother****ing”
G|--------------------------------|---------------------------------|
D|--------5-------------------5-3-|--------8-----10--1010--10-----10|
A|--------------------------------|---------------------------------|
D|5---5---------------------------|8---8-------8--------10-----10---|
1 2 3 4 1 2 3 4
“I am so...”
G|--------------------------------|--------------------------------|
D|--------------------------------|--------3-----------3-------3---|
A|--------5-3-0-3-----5-3-----5-3-|----------5-3-5-------5-------5-|
D|0---0-------------------0-------|3---3-------------------3-------|
1 2 3 4 1 2 3 4
G|--------------------------------|--------------------------------|
D|--------5-3---3-----5-------5-3-|----------8---8---------10------|
A|------------5---------3---------|--------------------------------|
D|5---5-------------------5-------|8---8---8---8---10--10----------|
1 2 3 4 1 2 3 4

G|--------------------------------|
D|--------------------------------|
A|--------------------------------|
D|

0 reply
dukeboreham 72 Jan 24, 2016 04:51 PM

Y are there numbers under the tabs ?

guest
You may want to rate the tab now too:
select rating
Wanna post a correction for this tab? Suggest correction