Oops, an error
Loading. Please wait.

One And Only tab

version 1
version 1

Whole song

Interactive

2,225 views 1 this week
5 commentsread comments
1 2 3 4 5
x 4
add to favorites
×
Save as Personal and add changes to this tab that will be seen only by you. Learn more ›
×
You can save this tab as Personal to edit and correct it or add notes. All changes will be seen only by you. Learn more »
launch autoscroll
font size
0
reset
how to read this tab
guitar tuner
edit
Autoscroll
slow
fast
+/-
esc
set tempo
stop
Author
Difficulty
-------------------------------------------------------------------------------
                             One and Only - Timbaland feat. Fall Out Boy
-------------------------------------------------------------------------------
Tabbed by:NandoD

Tuning:Standard

This is pretty much how the song goes I think. It's pretty simple.

Intro - Played with a delay-ish effect I'm guessing
E||-----------------------|-------------------------|
B||-----------------------|-------------------------|
G||--11-------------------|--11----12---------------|
D||--12----9----9----9----|-------------------------|
A||-----------------------|-------------------------|
E||-----------------------|-------------------------|

or if you don't own a pedal or for whatever reason don't wanna use one...
E||-----------------------|-------------------------|
B||-----------------------|-------------------------|
G||--11-------------------|--11----12----x----11-12-|
D||--12----9----9----9----|--------------x----------|
A||-----------------------|-------------------------|
E||-----------------------|-------------------------|

and Chorus - figure out the rhythm yourself, it's not hard.
E||-----------------|
B||-----------------|
G||--4--------------|
D||--4----5----2----|
A||--2----5----2----|
E||-------3----0----|


www.timbalandmusic.com

            
            
Suggest correction
Creating personal tab
Creating personal tab
You can edit any tab online and save it as your Personal.

You can edit, replace or remove any tab part or add personal notes – all changes will be seen only by you.

Personal tabs can be accessed anytime from any device, even offline.
Learn more »
comments
print report bad tab
5 comments total. Showing first comments.
0 reply
pnkr0cker 2,033 May 15, 2007 07:22 PM

dude especially knowing fob there is more detail than THAT. and the intro uses a wah pedal i think

0 reply
pnkr0cker 2,033 May 18, 2007 05:56 PM

the intro goes like this.

e|---------------------|
B|--7-------7-8-5-7-8--|
G|--7-------7-7-7-7-7--|
D|----9-9-9------------|
A|---------------------|
E|---------------------|
* * *
PM

thats all ive bothered to figure out

0 reply
Jimmyiscool 20 Jul 28, 2007 06:55 AM

lmao at the first comment

yep, thats right FOB are guitar gods

mhmmm

guest
You may want to rate the tab now too:
select rating
Wanna post a correction for this tab? Suggest correction