Oops, an error
Loading. Please wait.

Woman chords

1,781 views 6 this week
2 commentsread comments
1 2 3 4 5
1 last vote to show rating
add to favorites
×
Save as Personal and add changes to this tab that will be seen only by you. Learn more ›
×
You can save this tab as Personal to edit and correct it or add notes. All changes will be seen only by you. Learn more »
launch autoscroll
font size
0
reset
transpose
0
reset
simplify chords
display chords
guitar tuner
edit
Autoscroll
slow
fast
+/-
esc
set tempo
stop
Author
Difficulty
Strumming
There is no strumming pattern for this song yet. and get +5 IQ
-------------------------------------------------------------------------------
                            Timber Timbre - Woman
-------------------------------------------------------------------------------
Album : Creep On Creepin On (2011)
Tempo : 105
E-mail: gwendal.mollo@orange.fr
Tabbed by: newg

Riff:
   E     E     G#5 G5   G5   G5    G#5 A#5 D#5 D#5   E5 F#5
E |------------------||------------------||----------------||
B |------------------||------------------||----------------||
G |------------------||------------------||----------------||  
D |------------------||-5-----5-----6--8-||-1---1----2--4--||
A |------------------||------------------||----------------||
E |-0-----0-----4--3-||------------------||----------------||      Intro
        X12  (x4)              x2                 x2            Play 2 times


E
  Hand to hand to
Em
  mouth to mouth to
E
  mind to mind to 
Em
  mouth to middle,
      Am   Am6              Am         Am6     E
Oh, woman        Why aren't you moving with me yet?
           C#m                 Am         Am6
Do you forget what you try to remember,
               Am           Am6        E      E
and d'you remember what you try to forget?



E
  Hand to hand to
Em
  mouth to mouth to
E
  mind to mind to 
Em
  mouth to middle,
      Am   Am6          Am  Am6         E
Oh, woman       It's an omen,   this is it.
          C#m              Am         Am6
But I forget what i try to remember,
       Am        Am6       E
I remember all i try to forget.


Riff repeat many times

            
            
Suggest correction
Creating personal tab
Creating personal tab
You can edit any tab online and save it as your Personal.

You can edit, replace or remove any tab part or add personal notes – all changes will be seen only by you.

Personal tabs can be accessed anytime from any device, even offline.
Learn more »
Give kudos to tab author, rate the tab!
1 2 3 4 5
comments
print report bad tab
2 comments total.
0 reply
JoeB007 701 Dec 24, 2013 12:15 AM

E C5 G#5
E |------------------||------------------||----------------||
B |------------------||------------------||----------------||
G |------------------||------------------||----------------||
D |------------------||-5-----5-----6--8-||-1---1----2--4--||
A |------------------||------------------||----------------||
E |-0-----0-----4--3-||------------------||----------------|| Intro
X12 x4 x2 x2 Play 2 times

Hand to hand to
E
mouth to mouth to
Em
mind to mind to
E
mouth to middle
A Am Am9 E
Oh woman Why arent you moving with me yet?
Dbm C
Do you forget what you try to remember
A Am E E
and dyou remember what you try to forget?

Hand to hand to
E
mouth to mouth to
Em
mind to mind to
E
mouth to middle
A Am Am9 E
Oh woman Its an omen this is it.
Dbm C
But I forget what i try to remember
A Am E
I remember all i try to forget.

Riff repeat many times

0 reply
douglas.cheng.7 10 Apr 25, 2014 02:04 PM

E E G#5 G5 G5 G5 G#5 A#5 D#5 D#5 E5 F#5
E |------------------||------------------||----------------||
B |------------------||------------------||----------------||
G |------------------||------------------||----------------||
D |------------------||------------------||-1---1----2--4--||
A |------------------||------------------||----------------||
E |-0-----0-----4--3-||-3-----3-----4--6-||----------------||
X12 (x4) x2 x2

guest
You may want to rate the tab now too:
select rating
Wanna post a correction for this tab? Suggest correction