Oops, an error
Loading. Please wait.

Muriendo Lento Tab

85 views 1 this week
no commentswrite comment
1 2 3 4 5
3 more votes to show rating
add to favorites
launch autoscroll
font size
0
reset
how to read this tab
guitar tuner
×
Best way to learn
"Muriendo Lento"
Autoscroll
slow
fast
+/-
esc
set tempo
stop
                A5    D5     E5
             e|-----------------    tonos normales A D E
               B|----------------
              G|--------7-----9--
            D|--7-----7-----9--
            A|--7-----5-----7--
                   E|--5--------------


e|-----------------------------------------------------------------
B|-10-9-10-9-------------------------------------------------------
G|-----------10-9--------------------------------------------------
D|---------------12-11---6-A9--------------------------------------
A|-----------------------------------------------------------------
E|-----------------------------------------------------------------

A5                   D5
Quizás no sientas lo que yo sentí  -
                  A5
Quizás no hay lagrimas ni  miedo
A5                      D5
Tal vez no piensas ni un momento en mi  -
                  A5
Tal vez hay alguien en tus sueños.

 A5
Donde esta el amor
    A5     D5
Donde esta tu corazón
 D5            D5   E5
Te necesito ya nada es igual
 D5                 A5          D5
Y es que al pensarte todo me hace mal.

   D5     A5     D5
 Si tu no estas dame una razón
   A5    D5   E5  A5
 Para no morir  lento

A                  D
Dime que debo hacer para olvidar  -
                  A
que alguien me escuche en el cielo
A               D
esta tan roto ya mi corazón  -
               A
como le digo que fue un juego


A
Donde esta el ayer
A
Donde esta el amor
  A      D
Donde esta tu corazón
D               D     E
No te pareces nada a quien yo ame
  D            A     D
Y lentamente se me va  la fe.


D      A    D
Si tu no estas dame una razón
  A     D        D        A
Para no morir lento...   lento

[Solo]
e|-----------------------------------------------------------------
B|-10-9-10-9-------------------------------------------------------
G|-----------10-9--------------------------------------------------
D|---------------12-11---6-A9--------------------------------------
A|-----------------------------------------------------------------
E|-----------------------------------------------------------------


A5                   D5
Soplaba el viento a nuestro favor  -
         A5
y tocábamos el cielo
A5                   D5
mira mis ojos y dime si es verdad  -
             A5
que nuestro amor llego al final.

 A
Donde esta el ayer
 A
Donde esta el amor
 A      D
Donde esta tu corazón
 D             D   E
Te necesito ya nada es igual
 D                   A    D
Y es que al pensarte todo me hace mal.

   D       A      D
Si tu no estas dame una razón
  A      D     E   D
Para no morir lento


   (Riff A)
e|-----------------------------------------------------------------
B|-10-9-10-9-------------------------------------------------------
G|-----------10-9--------------------------------------------------
D|---------------12-11---6-A9--------------------------------------
A|-----------------------------------------------------------------
E|-----------------------------------------------------------------

e|-----------------------------------------------------------------
B|-10-9-10-9-------------------------------------------------------
G|-----------10-9--------------------------------------------------
D|---------------12-11---6-----------------------------------------
A|-----------------------------------------------------------------
E|-----------------------------------------------------------------
Suggest correction
Give kudos to tab author, rate the tab!
1 2 3 4 5
comments
print report bad tab
guest
You may want to rate the tab now too:
select rating
Wanna post a correction for this tab? Suggest correction