Oops, an error
Loading. Please wait.

The Fucker Tab

by Time
187 views 1 this week
no commentswrite comment
1 2 3 4 5
please rate
add to favorites
launch autoscroll
font size
0
reset
how to read this tab
guitar tuner
Autoscroll
slow
fast
+/-
esc
set tempo
stop
Help us to improve Ultimate-Guitar.com Take our survey!
×
song: The Fucker
Band: time
Tabbed By : Miguel Angel (miguel_angelr2@hotmail.com)

I think this tab is not so accurate...just 99%..up to u guys~~!


Intro
e--------------------------------------------------
B-5----0---5/7-7-----0----7/9--9-----0----9--------
G---4----4-------6-----6---------8-----8-----------
D--------------------------------------------------  2x
A-3--3-----3/5-5---5------5/7--7---7------7--------
E--------------------------------------------------

e--------------------------------------------------
B-5----0---5--7-----0-----7--9-----0-----0-----9~~-
G---4----4-------6-----6-------8-----8-----8-------
D--------------------------------------------------
A-3--3-----3--5---5-------5--7---7-----7-----7-7~~-
E--------------------------------------------------

verse
e--------------------------------------------------
B----------5----------7------------9--9--9--9------
G---5--5-------7--7--------9---9-------------------
D--------------------------------------------------  2x
A----3---3------5---5--------7---7-------7--7------
E-3----------5----------7--------------------------

Chorus (overdrive)
e--------------------------------------------------
B--------------------------------------------------
G-----55------77------99--------55------77------99-
D-55--55--77--77--99--99----55--55--77--77--99--99-  2x
A-55--33--77--55--99--77----55--33--77--55--99--77-
E-33------55------77--------33------55------77-----

verse (overdrive)

Chorus

PRE-CHORUS
e--------------------------------------------------
B--------------------------------------------------
G-------5555--------7777--------9--999-------------
D-5555--5555--7777--7777--9999--9--999-------------  4x
A-5555--3333--7777--5555--9999--7--777-------------
E-3333--------5555--------7777---------------------
pm........................................

verse

Interclude (overdrive)
e--------------------------------------------------
B--------------------------------------------------
G-------5555--------7777--------9999---------------
D-5555--5555--7777--7777--9999--9999---------------  4x
A-5555--3333--7777--5555--9999--7777---------------
E-3333--------5555--------7777---------------------

e--------------------------------------------------
B--------------------------------------------------
G-------5555--------7777-------------9--999--------
D-5555--5555--7777--7777--99999999---9--999--------
A-5555--3333--7777--5555--99999999---7--777--------
E-3333--------5555--------77777777-----------------
Suggest correction
Give kudos to tab author, rate the tab!
1 2 3 4 5
comments
print report bad tab
guest
You may want to rate the tab now too:
select rating
Please do not post tabs as comments. Select "correction" instead!