Oops, an error
Loading. Please wait.

Broken Bodies Bass Tab

version 1
version 1

Whole song

Interactive

677 views 1 this week
1 commentread comment
1 2 3 4 5
excellent!
x 1
add to favorites
launch autoscroll
font size
0
reset
guitar tuner
Tab Pro tools
  • play this tab
  • loop segment
  • change instrument
  • show fretboard
  • metronome
Autoscroll
slow
fast
+/-
esc
set tempo
stop
Contributor
ARTIST: TIME AGAIN
ALBUM:  THE STORIES ARE TRUE [hellcat records]
SONG:   BROKEN BODIES


PART1
G------------------------------|
D------------------------------|
A------------------------------|
E-5-55555-7-77777-0-00000-0457-|

PART2
G---------------------------------|
D---------------------------------|
A---------------------------------|
E-5-55555-7-77777-0-00000-0-00000-|

PART3
G-------------------------------------------|
D--------------976---6--------------976-----|
A---------76-7----97-----------76-7----97-6-|
E-9-99999--------------9-99999--------------|

PART4
G---------------------|
D---------------------|
A-----------444-------|
E-000-4-444-----5-555-|

FINISH:
G----
D----
A----
E-0~-

ORDER:
PART1 3X
PART2 1X
PART3 4X
PART4 4X
PART3 4X
PART4 4X
PART1 3X
PART2 1X
PART1 3X
PART2 1X
PART4 4X
FINISH

thats all.. have fun..
  xxSID

band website:
http://www.timeagainband.com/
comments
We did not receive enough feedback on this tab! Please rate:
print report bad tab
1 2 3 4 5
1 comment total.
0 reply
googleberg wrote on September 21 2007, 05:49 pm

great tab, absolutely spot on, im used to having to edit half the tabs on here, nice to find one that i dont have to change at all
cheers
5 stars

I want to post or [tab]
guest
You may want to rate the tab now too:
select rating
Please do not post tabs as comments. Select "correction" instead!