Oops, an error
Loading. Please wait.

Fallen Nation Bass

292 views 1 this week
no commentswrite comment
1 2 3 4 5
3 more votes to show rating
add to favorites
launch autoscroll
font size
0
reset
guitar tuner
×
Best way to learn
"Fallen Nation"
Autoscroll
slow
fast
+/-
esc
set tempo
stop
intro                       3X
G-----------------------------I---------------------------|
D-----------------------------I---------------------------|
A--------33-333--------22-222-I-22-222-22-222-22-222-2222-|
E-00-000--------33-333--------I---------------------------|

part1
G-------------------------------------------------|
D-22-222-2222-------------55-555-5545-------------|
A-------------33-333-3323-------------22-222-2222-|
E-------------------------------------------------|

part2
G-------------------5-5-44-5----------|
D-5-5-44-5-------------------5-5-44-5-|
A----------7-7-66-7-------------------|
E-------------------------------------|

part3
G-----------------------------|
D-22-222--------55-555--------|
A--------33-333--------22-222-|
E-----------------------------|

solo
G-------------------------12-12-12-12-12-12-15-15-14-14-14-14-14-14-14-14-15-14-12----14-12-------|
D-10-10-10-10-10-10-12-12----------------------------------------------------------15-------15-15-|
A-------------------------------------------------------------------------------------------------|
E-------------------------------------------------------------------------------------------------|

solo cont.
G-------------------------------------------------------------------------------------------9--------------------|
D-10-10-10-10-10-10-10-10-10-10-12-12-12-12-12-12-12-12-12-12---------------------------------12-10-9-12-10-9----|
A-------------------------------------------------------------12-12-12-12-12-12-12-12-12-12-------------------12-|
E----------------------------------------------------------------------------------------------------------------|

finish
G-------------------5-5-44-5----|
D-5-5-44-5-------------------2~-|
A----------7-7-66-7-------------|
E-------------------------------|

order:
intro 1X
part1 2X
part2 4X
part3 2X
part1 2X
part2 4X
part3 2X
part1 2X
part2 6X
part3 2X
solo
first part of intro 2X
part2 till finish
finish

thats all i guess.. have fun..
 xxSID
Suggest correction
Give kudos to tab author, rate the tab!
1 2 3 4 5
comments
print report bad tab
guest
You may want to rate the tab now too:
select rating
Wanna post a correction for this tab? Suggest correction